música
Buscador

Acorde de Inmaduro - El Otro Yo

Letra de Inmaduro

Riff1

e|-5-2-0--5-2-0--0-2-0--5-2-0--9-9-7-5-7-5-|

B|-----------------------------------------|

G|-----------------------------------------|

D|-----------------------------------------|

A|-----------------------------------------|

E|-----------------------------------------|



Riff2

e|--------------------------------------|

B|---5---5---5-7----5---5---5-7-5-------|

G|-6---6---6------6---6---6-------7-6---|

D|------------------------------------7-|

A|--------------------------------------|

E|--------------------------------------|



Intro: Riff1 x2



A A/G A A/G

¡Hey!, todos ustedes, que no están interesados,

A A/G A A/G Riff1

están ciegos de ambición... están ciegos de ambición.

A A/G A A/G

Es algo detestable, que la sangre no les corre,

A A/G A A/G

estando totalmente vivo deseo cambiarte...

D E/D D E/D

Porque el mundo se mueve en forma diferente,

https://www.coveralia.com/acordes/inmaduro-el-otro-yo.php

D E/D D E/D

¿de qué sirve el dinero si soy solo un hombre?

A A/G A A/G

Totalmente tonto, totalmente tonto,

A A/G A A/G

totalmente tonto, totalmente tonto.



Riff2 x2 Riff1 x2



A A/G A A/G

¡Hey!, todos ustedes, que quieren cambiar el mundo,

A A/G A A/G

no se detengan... no se detengan.

A A/G A A/G

Te voy a ayudar hasta el final.

A A/G A A/G

Te voy a ayudar hasta el final.

D E/D D E/D

Porque uno se muere y eso nada lo detiene

D E/D D E/D

¿de qué sirve todo esto si soy solo un hombre?

A A/G A A/G

Siempre intentando hacerte feliz soy el viento...

A A/G A A/G

Siempre intentando hacerte feliz soy el viento...

A A/G A A/G A A/G A A/G A

Más fuerte, más fuerte, más fuerte, más fuerte... ¡Ya no estoy!

Letra subida por: Anónimo

Discos en los que aparece este acorde: Colmena , Pirata , Estallando Tu Lado Salvaje

El acorde de Inmaduro de El Otro Yo es una versión de la canción original realizada por colaboradores/usuarios de Coveralia.

¿Has encontrado algún error en esta página? Envíanos tu corrección del acorde