música
Buscador

Acorde de Informe De Un Día - Manal

Letra de Informe De Un Día

Intro:   E7/+9  /  /  /



E7/+9 B7 E7/+9 /

Algo comienza hoy para mí,

C7 B7 E7/+9 /

no tengo prisa por ver lo que es.

E7/+9 B7 E7/+9 /

No es historia, ni mirar hacia atrás, no,

C7 B7 E7/+9 /

es ginebra, amigos, nada más.



B7 A7

Esto lo esperé tanto

E7

que casi no sé que hoy llegó.

B7 A7

Trampas de vivir siempre

E7

sin ninguna explicación.



Inter:



E7/+9 B7 E7/+9 /

No miro el techo para ver más que yeso,

C7 B7 E7/+9 /

y la ventana me sirve para mirar

E7/+9 B7 E7/+9 /

un edificio con gente que desayuna,

C7 B7 E7/+9 /

se peina y fuma en la rutina de continuar.



B7 A7

Yo estoy aquí tan tranquilo,

E7

revuelvo mi pelo, me miro los pies.

B7 A7

Ellos están ahí, no sé como,

E7

los puedo ver aún sin mirar.



Inter:



E7/+9 B7 E7/+9 /

Y me pregunto ¿por qué ayer

C7 B7 E7/+9 /

lloraba, pensaba en que

E7/+9 B7 E7/+9 /

si acá no hay nada, no hay nada que ver

C7 B7 E7/+9 /

que sea raro, inexplicable, sin un por qué.



B7 A7

Esta reflexión solo me sirve

E7

para tomarme un café,

B7 A7

y el amanecer que ahora me espera

E7

es garantía de mi fe.

Inter:



Solo bajo: N/C



Solo guit: E7/+9 / / /

(E7/+9 B7 E7/+9 E7/+9 C7 B7 E7/+9 E7/+9)x2

(B7 A7 E7 E7)x8

https://www.coveralia.com/acordes/informe-de-un-dia-manal.php



B7 A7

Esta reflexión solo me sirve

E7

para tomarme un café,

B7 A7

y el amanecer que ahora me espera

E7

es garantía de mi fe.



Inter:



E7/+9 B7 E7/+9 /

¡Qué bien estoy!, que bien, que bien,

C7 B7 E7/+9 /

quizá me ría dentro de un rato, o por qué reír;

E7/+9 B7 E7/+9 /

o me recuerde en un andén, junto a un tren

C7 B7 E7/+9 /

que va a algún lado en donde alguien toma café.



B7 A7

Esta reflexión solo me sirve

E7

para tomarme un café,

B7 A7

y el amanecer que ahora me espera

E7

es garantía de mi fe.



Inter:



Outro: E7/+9



Intro:

Bm F#m

*--------------------------------*------------------------------------------*

*-----10b-r10-7------------------*-------17b-r17-14-------------------------*

*---7-----------9b-r9-7-------7\-*----14------------16b-r16-14----------14\-*

*-9---------------------9-7-9----*-16--------------------------16-14-16-----*

*--------------------------------*------------------------------------------*

*--------------------------------*------------------------------------------*

Am Em

*------------------------------*--------------------------------------------*

*-----8b-r8-5------------------*-------15b-r15-12---------------------------*

*---5---------7b-r7-5-------5\-*----12------------14b-r14-12----------12-14-*

*-7-------------------7-5-7----*-14--------------------------14-12-14-------*

*------------------------------*--------------------------------------------*

*------------------------------*--------------------------------------------*



*------------------------------**

*------------------------------**

*-12-14-12-14-12-14b(1 1/2)^14-**

*------------------------------**

*------------------------------**

*------------------------------**



Inter

Em

*-------------------------------------------------------------**

*-------15b-r15-12--------------------------------------------**

*----12------------14b-r14-12----------12-14-12-14b(1 1/2)^14-**

*-14--------------------------14-12-14------------------------**

*-------------------------------------------------------------**

*-------------------------------------------------------------**

Letra subida por: Anónimo

Discos en los que aparece este acorde: Manal , Manal (1973) , En Vivo En El Roxy

El acorde de Informe De Un Día de Manal es una versión de la canción original realizada por colaboradores/usuarios de Coveralia.

¿Has encontrado algún error en esta página? Envíanos tu corrección del acorde