música
Buscador

Acorde de Incendios - Nacho Vegas

Letra de Incendios



Incendios



Capo: 3



Intro:

G C D G C G

1-------3--------------------------2------------3------0-3---

2-----0---0---------1------------3---3--------0---0----1-0---

3---0-------0-----0-------0----2-------2----0-------0--0-0---

4---------------------0h2------------------------------------

5--------------3-------------0-------------------------3-----

6-3---------------------------------------3--------------3---



G C D G C G

1-------3--------------------------2------------3------0-3---

2-----0---0---------1------------3---3--------0---0----1-0---

3---0-------0-----0-------0----2-------2----0-------0--0-0---

4---------------------0h2------------------------------------

5--------------3-------------0-------------------------3-----

6-3---------------------------------------3--------------3---



G C G

1-------3------0-3---

2-----0---0----1-0---

3---0-------0--0-0---

4--------------------

5----------------3---

6-3------------3-----





de qui en adelante son arpegios sencillos:



Em Am

A las cinco entre higeras y pinos

D G

todo esta tan tranquilo hoy

Em Am

pero he ido ocupando su sitio

D G

como un silencio a su ejercito



Em Am

y nada ya nos importa

D G

ni los dias ni las horas

Em Am

ni las lagartijas que se han

D G

ido a esconder a algun sitio mejor



Em C

y dime amor, dime amor

D G

si estas ardiendo

Em C D G

y si es que puedo aliviarte yo



rif: x2

G C G

1-------3------0-3---

2-----0---0----1-0---

3---0-------0--0-0---

4--------------------

5----------------3---

6-3------------3-----



Em Am

Y escuche todas esas historias

D G

sobre incendios que acaban bien

Em Am

recorri todos esos caminos

D G

que devio recorrer algun dia el

https://www.coveralia.com/acordes/incendios-nacho-vegas.php



Em Am

reelegi uno a uno sus libros

D G

buscando pistas en ellos

Em Am

y en cada una de sus paginas

D G

he acabado encontrandote





5| -2/9-------------



Em C

y dime amor, dime amor

D G

si estas ardiendo

Em C D G

y si es que puedo aliviarte yo



rif: x2

G C G

1-------3------0-3---

2-----0---0----1-0---

3---0-------0--0-0---

4--------------------

5----------------3---

6-3------------3-----



Em Am

ha refrescado esta noche

D G

y me he puesto su famoso jersey's

Em Am

me concentro en estos dias

D G

para ahullentar los que vendran despues



Em Am

y es mi miedo el de esa lagartija

D G

al desprenderse de su cola

Em Am

y ahora ha llegado lola

D G

y dice que esto ya no es lo que fue



C D

me.... dejas que lea el mapa

Bm Em

que ha dejado el agua hirviendo sobre tu piel

C D

se que son tiempos duros pero si lo hay juro

Bm D D*

que alla donde quiera que estes A-CU-DIREEEEEE!





y a-ho-ra

Em C

dime amor, dime amor

D G

si estas ardiendo

E C D G

y si es que puedo aliviarte yo



Em C

pero dile amor, dile amor

D G

Dile, dile amor

Em C D G

dile amor, que el que ahora te alivia soy yo.





Letra subida por: Anónimo

Discos en los que aparece este acorde: La Zona Sucia

El acorde de Incendios de Nacho Vegas es una versión de la canción original realizada por colaboradores/usuarios de Coveralia.

¿Has encontrado algún error en esta página? Envíanos tu corrección del acorde