música
Buscador

Acorde de Imposible - Agustin Lara

PARTE 1:

 Am                       E7                      Am6
|----------0------------|----------0-----0------|----------2------------|
|-------1--------1-----1|-------3-----------3---|-------1--------1-----1|
|----2--------------2---|----1-----------------1|----2--------------2---|
|-------------2---------|-------------2---------|-------------2---------|
|-0---------------------|-----------------------|-0---------------------|
|-----------------------|-0---------------------|-----------------------|
  Yo    sé   que es impo- sim -ble      que me   quie- ras...
  1  *  2  *  3  *  4  *  1  *  2  *  3  *  4  *  1  *  2  *  3  *  4  *


 A7                                              Dm7         Dm
|----------0------------|----------0------------|----------1-----1------|
|-------2--------2-----2|-------2-----------2---|-------1-----------3---|
|----0--------------0---|----0-----------0-----0|----2-----------------2|
|-------------2---------|-------------2---------|-0---------------------|
|-0---------------------|-0---------------------|-------------0---------|
|-----------------------|-----------------------|-----------------------|
  que  tu   amor   para   mí           fue pasa-  je-  -ro...
  1  *  2  *  3  *  4  *  1  *  2  *  3  *  4  *  1  *  2  *  3  *  4  *


 G7                      G9          G7          C           Cmaj7
|----------1------------|----------1------------|----------0-----0------|
|-------0--------0-----0|-------0-----------0---|-------1-----------0---|
|----0--------------0---|----2-----------0-----0|----0-----------------0|
|-----------------------|-----------------------|-------------2---------|
|-------------2---------|-------------2---------|-3---------------------|
|-3---------------------|-3---------------------|-----------------------|
  y  que    cambias tus   be-sos     por   di-    ne-  -ro...
  1  *  2  *  3  *  4  *  1  *  2  *  3  *  4  *  1  *  2  *  3  *  4  *


 Dm6         Dm          Dm7                     E7
|----------1------------|----------1------------|----------0-----0------|
|-------0--------3-----3|-------1-----------1---|-------3-----------3---|
|----2--------------2---|----2-----------2-----2|----1-----------------1|
|-0---------------------|-0---------------------|-------------2---------|
|-------------0---------|-------------0---------|-----------------------|
|-----------------------|-----------------------|-0---------------------|
  en   vene- nan-  do am  sí            mi cora-  zón...           [no]
  1  *  2  *  3  *  4  *  1  *  2  *  3  *  4  *  1  *  2  *  3  *  4  *




PARTE 2:

 A                       Amaj7        Edim        E7
|----------0------------|----------0-----------0|----------0-----0------|
|-------2-----------2---|-------2-----------2---|-------3-----------3---|
|----2-----------2-----2|----1-----------0------|----1-----------------1|
|-------------2---------|-----------------------|-------------2---------|
|-0---------------------|-0-----------1---------|-----------------------|
|-----------------------|-----------------------|-0---------------------|
 creas       que tus  in-famias       de per-    ju-   ra,         in-
  1  *  2  *  3  *  4  *  1  *  2  *  3  *  4  *  1  *  2  *  3  *  4  *


 Bm           Bm7        E7                      A
|----------2-----------2|----------0-----------0|----------0------------|
|-------3-----------3---|-------3-----------3---|-------2-----------2---|
|----4-----------2------|----1-----------1------|----2-----------2-----2|
|-------------4---------|-------------2---------|-------------2---------|
|-2---------------------|-----------------------|-0---------------------|
|-----------------------|-0---------------------|-----------------------|
 ci-         tan  mi ren-cor         para olvi-  dar-  -te,         te
  1  *  2  *  3  *  4  *  1  *  2  *  3  *  4  *  1  *  2  *  3  *  4  *


 Amaj7                    A9          A7         D6           D
|----------0------------|----------0------------|----------2------------|
|-------2-----------2---|-------0-----------2---|-------0--------3-----3|
|----1-----------1-----1|----0-----------0-----0|----2--------------2---|
|-------------2---------|-------------2---------|-0---------------------|
|-0---------------------|-0---------------------|-------------0---------|
|-----------------------|-----------------------|-----------------------|
 quie-       -ro   mucho  más        en   vez de odiar--te,    y tu cas-
  1  *  2  *  3  *  4  *  1  *  2  *  3  *  4  *  1  *  2  *  3  *  4  *


  A                       B7         E7          A
|----------0----------0-|----------2-----------0|-----------------------|
|-------2----------2----|-------0-----------3---|-----------------------|
|----2----------2-------|----2-----------1------|-------2-----2---------|
|------------2----------|-----------------------|-------2-----2---------|
|-0---------------------|-2---------------------|-0---------------------|
|-----------------------|-------------0---------|-----------------------|
 tigo            se lo    de-        -jo a       Dios.
  1  *  2  *  3  *  4  *  1  *  2  *  3  *  4  *  1     2     3     4


Letra subida por: Anónimo

Discos en los que aparece este acorde: 20 Exitos

El acorde de Imposible de Agustin Lara es una versión de la canción original realizada por colaboradores/usuarios de Coveralia.

¿Has encontrado algún error en esta página? Envíanos tu corrección del acorde