música
Buscador

Acorde de Impacto - Enjambre

Letra de Impacto



Verso



C#m F#m

Esos brazos cruzados

B7 G#m

y ese seño enojado,

C#m F#m

me tienen intrigado,

B7 G#m

me intimidas que hago

C#m F#m

y si das un paso

B7 G#m

me pones a llorar y si caminas mas

C#m-G# x4 C#m B (el C#m y G# se arpegean)

al suelo voy a dar ahh ahh ahh,



Coro

E D#9dimm5 E D#9dimm5

no me mires con esos ojos,

C#m F#9dimm5

que me deslumbran,

C#m F#9dimm5

me derrumbas,



E D#9dimm5 E D#9dimm5

no me mires con esos ojos

C#m F#9dimm5 C#m F#9dimm5

por que te lo doy todo ni modo



E D#9dimm5 E D#9dimm5

no me mires con esos ojos,

C#m F#9dimm5 C#m F#9dimm5

que me derrites me trasmites,



F#m B

la vergüenza del sol

G#m

Quien en su resplandor

C# A F# B C#m-G# x4 C#m B (el C#m y G# se arpegean)

se ve opacado… a tu lado ohh ohh ohh,



Verso

C#m F#m

Se escucha una melodía,

B7 G#m

el canto de esa niña,

C#m F#m

burbujea la sangre,

B7 G#m

que corre por mis venas

C#m F#m

y apenas si me ves me tumbas del impacto

B7

y te hechas a reír

G#m C#m B

me da un paro cardíaco,



Coro

E D#9dimm5 E D#9dimm5

https://www.coveralia.com/acordes/impacto-enjambre.php

no me mires con esos ojos,

C#m F#9dimm5

que me deslumbran,

C#m F#9dimm5

me derrumbas,



E D#9dimm5 E D#9dimm5

no me mires con esos ojos

C#m F#9dimm5 C#m F#9dimm5

por que te lo doy todo ni modo



E D#9dimm5 E D#9dimm5

no me mires con esos ojos,

C#m F#9dimm5 C#m F#9dimm5

que me derrites me trasmites,



F#m B

la vergüenza del sol

G#m

Quien en su resplandor

C# A C

se ve opacado…

E D#9ds5 E D#9ds5 C#m F#9dim5 C#m F#9ds5

a tu lado ohh ohh ohh,



E D#9ds5 E D#9ds5 C#m F#9ds5 C#m F#9ds5

aaaaaaaaaaaaaaaaaaaaaaaaaaaaaaaaaa

Riff Solo

e|----------------|--|---------------|--|

B|----------------|--|---------------|--|

G|----------------|X2|---------------|x2|

D|-2-2-4-4-6-6-4-2|--|----2-2-6-6-4-2|--|

A|----------------|--|-4-4-----------|--|

E|----------------|--|---------------|--|

D#9ds5 E D#9ds5 C#m F#9ds5 C#m F#9ds5 A C E5

no me mires con esos ojos, ooooh, oooooh ,ohhhhhh

Riff Coro segunda Guit

e|----------------|--|----------------|-----------------------------|

B|----------------|--|----------------|-----------------------------|

G|----------------|X2|----------------|-----------------------------|

D|-2-4-2-4-6-4-6-4|--|-6-7-6-7-6-4-6-4|-2-2-1-1-2-4-6-6-3-4-6-7-2-1-|

A|----------------|--|----------------|-----------------------------|

E|----------------|--|----------------|-----------------------------|

Riff Final (Esto lo hace el teclado) FIN El arpegio d C#m-G#

e|----------||---------7-11-12-11-7----------|----||-C#m--|--G#--|

B|----------||--------9------------9---------|----||---5--|------|

G|----------||-----8-9--------------9-8------|-E5-||--6-6-|---5--|

D|----------||--6-9--------------------9-6---|----||-6----|--6-6-|

A|-0h-3h-7h-||-7--------------------------7/-|----||------|-6----|

E|----------||-------------------------------|----||------|------|



Chord

D#9ds5|F#9ds5 E C#m G#m F#m B C E5 B7 G#

e|----|---|----|-4-|-4-|-2-|-2-|-8-|-7-|-2-|-4-|

B|--1-|-4-|----|-5-|-4-|-2-|-4-|-8-|-7-|-4-|-4-|

G|--2-|-5-|--1-|-6-|-4-|-2-|-4-|-9-|-9-|-2-|-5-|

D|--1-|-4-|--2-|-6-|-6-|-4-|-4-|-10|-9-|-4-|-6-|

A|----|-x-|--2-|-4-|-6-|-4-|-2-|-10|-7-|-2-|-6-|

E|----|---|----|-x-|-4-|-2-|-x-|-8-|-x-|-x-|-4-|

Letra subida por: Anónimo

Discos en los que aparece este acorde: El Segundo Es Felino

El acorde de Impacto de Enjambre es una versión de la canción original realizada por colaboradores/usuarios de Coveralia.

¿Has encontrado algún error en esta página? Envíanos tu corrección del acorde