música
Buscador

Acorde de I Wish - One Direction

Letra de I Wish



Intro: 2x / Verse 1: 7x "Na na na na na / He takes your hand..."

e|----------------------------------------------------------|

A|----------------------------------------------------------|

D|----------------------------------------------------------|

G|-0-0-0----------------------------------------------------|

B|--0-0-0-1-1-0-1-0-----------------------------------------|

e|----------------------------------------------------------|



Verse 1: continued after "...The words get trapped..."

e|----------------------------------------------------------|

A|----------------------------------------------------------|

D|----------------------------------------------------------|

G|-0-0-0--2-2-0-2-0-----------------------------------------|

B|--0-0-0---------------------------------------------------|

e|----------------------------------------------------------|







Pre-Chorus 1



Em C G6

I hear the beat of my heart getting louder whenever I'm near you





G6 Em

But I see you with him slow dancing

C G6 D

Tearing me apart 'cause you don't see

G Em

Whenever you kiss him, I'm breaking

C D G6

Oh, how I wish that was me



Intro



Verse 2



G6

He looks at you the way that I would

https://www.coveralia.com/acordes/i-wish-one-direction.php

Does all the things I know that I could

If only time could just turn back



Pre-Chorus 2



Em C G6

'Cause I got three little words that I've always been dying to tell you



Chorus



Bridge



Em C G6

Feel with my hands on your waist while we dance in the moonlight

Em C G6

I wish it was me that you call in your room 'cause you wanna say good night

G6 Em

But I see you with him slow dancing

C G6 D

Tearing me apart 'cause you don't see



Chorus



End Chorus:



G6 Em

But I see you with him slow dancing

C G6 D

Tearing me apart 'cause you don't see

G6 Em

Whenever you kiss him, I'm breaking

C D

Oh, how I wish

C D

Oh, how I wish

C D Em G6 C

Oh, how I wish that was me-ee-eee...

C D G6

Oh, how I wish that was me

Letra subida por: Anónimo

El acorde de I Wish de One Direction es una versión de la canción original realizada por colaboradores/usuarios de Coveralia.

¿Has encontrado algún error en esta página? Envíanos tu corrección del acorde