música
Buscador

Acorde de I Really Miss You - S Club 7

Letra de I Really Miss You

Intro:  D    G    D    A    D    G    Adim7 



D Bm

I called today just to hear you say

Em A

You were not around

D Bm

When the message was through, though I wanted to

Em

I couldn't make a sound



Bm F#

I wanna tell you the things I've seen

Bm E

I wanna take you to where I've been

G A

And I wish you were here with me



D Bm G A

I really miss you yes I do, yeah

D Bm G

I really miss you

Adim7 D

Oooh yeah I do



D Bm

I'm writing to say - had a wonderful day

Em A

Hanging with my friends

D Bm

But the memory dies as the sun reach the skies - I'm

Em

Alone again



Bm F#

I wanna tell you the weather is fine

Bm E

When the night comes around you were on my mind

G

And I wish you were here with me

A

Don't you know



D Bm G

I really miss you

A

Yes I do yeah

D Bm G

I really miss you

A

Yes I do, I miss you

D Bm G

https://www.coveralia.com/acordes/i-really-miss-you-s-club-7.php

I really miss you

Adim7

Oooh yeah I do



Guitar solo:



|-2-5-2-5-2-----0|2-7-975---------|------------2-2-2|0---------------|

3|-------------3--|---------2-2--02|0-----------3-3-3|2-------------3-|

|----------------|----------------|-----------------|----------------|

|----------------|----------------|-----------------|----------------|

|----------------|----------------|-----------------|----------------|

|----------------|----------------|-----------------|----------------|



|-2-5-2-5-2-----0|2-7-975---------|------------2-3-2|0---------------|

|-------------3--|---------2-2--02|0-------------0-0|2---------------|

|----------------|----------------|-----------------|-----------2-0--|

|----------------|----------------|-----------------|---------------4|

|----------------|----------------|-----------------|----------------|

|----------------|----------------|-----------------|----------------|



Bm F#

I wanna tell you the things I've seen

Bm E

I wanna take you to where I've been

G

And I wish you were here with me

A

Oh don't you know



D Bm G

I really miss you

A

Yes I do yeah

D Bm G

I really miss you

A

I miss you



D Bm

I called today just to hear you say

Em A

You were not around

D Bm

When the message was through, though I wanted to

Em

I couldn't make a sound



D Bm

I'm writing to say - I had a wonderful day

Em

Hanging with my friends

Letra subida por: Anónimo

Discos en los que aparece este acorde: S Club

El acorde de I Really Miss You de S Club 7 es una versión de la canción original realizada por colaboradores/usuarios de Coveralia.

¿Has encontrado algún error en esta página? Envíanos tu corrección del acorde