música
Buscador

Acorde de I'm Down - The Beatles

Letra de I'm Down

e|----------------------------------------------------------------------------|

B|----------------------------------------------------------------------------|

G|----------------------------------------------------------------------------|

D|----------------------------------------------------------------------------|

A|-------------------10-------------------------10-12-10-12-10-12-10-12-10----|

E|--------------------8~-------------------------8--8--8--8--8--8--8--8--8----|

you tell lies you can't cry cause

thinking i can't you're laughing at me

see im down

e|----------------------------------------------------------------------------|

B|----------------------------------------------------------------------------|

G|----------------------------------------------------------------------------|

D|----------------------------------------------------------------------------|

A|---5-7-5-7-5-7-5-7-5------10-12-10-12-10-12-10-12-10---7----7---7-----12----|

E|---3-3-3-3-3-3-3-3-3-------8--8--8--8--8--8--8--8--8---5----5---5-----10----|

i'm down im down how can you laugh

2x

e|----------------------------------------|

B|----------------------------------------|

G|----------------------------------------|

D|----------------------------------------|

A|----10-----------------5----------------|

E|-----8~----------------3~---------------|

1.man buys ring 1.same ol thing

woman throws its happens everyday (repeat verse)

away 2.you still moan keep

2.we all alone and your hands to

theres nobody yourself

else



SOLO

https://www.coveralia.com/acordes/i-m-down-the-beatles.php

e|-----------------------------------------------|

B|-----------------------------------------------|

G|-----------------------------------------------|

D|-------3--------------------3---3-5b-5b-5b-3---|

A|---3h5---5-1-1---1-3~---3h5---5--------------3-|

E|-3-------------3------5------------------------|



e|-----------------------------------------------------------------|

B|-----------------------------------------------------------------|

G|-----3---3-5b-5b-5b-3-----3---5b--5b--5b--5b--5b-5b-5b-5b-5b-3---|

D|-3h5---5--------------5-5---5----------------------------------5-|

A|-----------------------------------------------------------------|

E|-----------------------------------------------------------------|

|-----------------------------------------------------------------|



e|--------------------------|

B|--------------------------|

G|--------------------------|

D|-----------3--------------|

A|---1-3-3/5---53-1--------|

E|-3----------------3-------|



B|-----------------------------------------------------------------|

G|-----------------------------------------------------------------|

D|-----------------------------------------------------------------|

A|10-12-10-12-10-12-10-12-10----5-7-5-7-5-7-5-7-5------------------|

E|-8--8--8--8--8--8--8--8--8----3-3-3-3-3-3-3-3-3------------------|

wooow baby (keep repeating this ryhthm till the song is over)

im down

Discos en los que aparece este acorde: Anthology 2 , Past Masters Volume One , Rock 'n' Roll Music , Rarities

El acorde de I'm Down de The Beatles es una versión de la canción original realizada por colaboradores/usuarios de Coveralia.

¿Has encontrado algún error en esta página? Envíanos tu corrección del acorde