música
Buscador

Acorde de Hust Ville - Disidencia

Letra de Hust Ville

1 -------------5-7-8-8-----------5-------------------------------------------
2 -----------5---------8-8-5-6-8---8-6-8------------------10-10-8-8----------
3 -9-7-----------------------------------9-9-9-10-9-10-12-----------10-10-9-9
4 -----9-10-----------------------------------------------------------------
5 --------------------------------------------------------------------------
6 --------------------------------------------------------------------------

este punteo se toca dos veces


DO       SOL           LAm
Estar aislado, y ser ejemplo
            FA         SOL
de destrucción, cobaya humana,
      DO              SOL
de la mas cruel represión,
DO   SOL          LAm
sofocar los sentimientos,

a futuro de hormigón,
FA             SOL
del desprecio, o el lamento,
DO                 SOL
no hay respuesta a ejecución.

Se vuelve a tocar el punteo del principio
DO     SOL
La poderosa industria,
LAm
de la reconversión,
FA       SOL
no admite nunca un fallo,
DO         SOL
ni asume un negro error,
DO   SOL        LAm
el espejo de la muerte,
                        FA
con la cara del gobernador,
         SOL
con su estúpida sonrisa,
DO        SOL
y su puts recepción.

LAm LAm LAm SOL FA

FA    DO         SOL             LAm
Su podrida legalidad, esta claro,
       FA            SOL
los traseros que resguardan,
FA                      LAm
por mas que limpien su imagen,
FA                  SOL
tendrá respaldos de mierda.

1 -----------------------------------------------------
2 6-5-6-8-6-5-6--6-5-6-8-6-5-6--6-5-6-8-6-5-6--6-5-----
3 -------------------------------------------------7---
4 ----------------------------------------------------
5 -----------------------------------------------------
6 -----------------------------------------------------

1----------------------------------------------------------
2---------------------------------------------------------
3-------9-7------------9-7--------------9-7----7-9-10--9--
47-9-10-----10-9-7-9-10-----10-9-7-9-10-----10----------
5------------- --------------------------------------------
6----------------------------------------------------------

Ahora se repiten los acordes
DO             SOL          LAm
Pulsa el acelerador a fondo
                  FA
si en velocidad moral,
               SOL
deja muerto en cada curva,
DO             SOL
de tu campaña electoral,
DO       SOL         LAm
amo el miedo, y a los medios,
                      FA
que se valla atravesando,
                SOL
si represento esta justicia,
DO              SOL
al rededor de un cementerio.

LAm LAm LAm SOL FA


FA    DO         SOL             LAm
Su podrida legalidad, esta claro,
       FA            SOL
los traseros que resguardan,
FA                      LAm
por mas que limpien su imagen,
FA                  SOL
tendrá respaldos de mierda.
FA       SOL     LAm
Y aunque sea, pedirles demasiado,
FA                   SOL
tu comportamiento racional,
FA  SOL          LAm
exigimos, la inmediata abolición,
FA           SOL
de la pena capital.


Letra subida por: Anónimo

Discos en los que aparece este acorde: Bienvenidos A Occidente

El acorde de Hust Ville de Disidencia es una versión de la canción original realizada por colaboradores/usuarios de Coveralia.

¿Has encontrado algún error en esta página? Envíanos tu corrección del acorde