música
Buscador

Acorde de Hurricane Streets - Hey Monday

Letra de Hurricane Streets

INTRO 



guitar 2 (lead):

E B C# G#

E--------------------------------------------------|

B----------------------------------10-9----11------|

G---9-9------9h11-9----9------9-11------11---------|

D-------9-11--------11---9h11----------------------|

A--------------------------------------------------|

E--------------------------------------------------|

A E A B

E--------------------------------------------------|

B----------------------------------10-9----11------|

G---9-9------9h11-9----9------9-11------11----9----|

D-------9-11--------11---9h11----------------------|

A--------------------------------------------------|

E--------------------------------------------------|



VERSE 1:

E B

The storm is rushing on me

C#m (G#) A

Here's the flood flash

E B

I feel so locked and loaded

C#m A

Let me out, let me out



Guitar 2 (lead) : ( Plays the whole Second part of VERSE 1

E---12---12---12----12--------------|

B------9----9----9-----9------------|

G-----------------------------------|

D-----------------------------------|

A-----------------------------------|

E-----------------------------------|



E B

Wake up in a wasteland

C#m

Where the trees

(G#) A

are crashing fast

E

Make or break

B

Or the road explodes

C#m A

Get out get out

B

of this town



E B C#m G#m

Live faster, love stronger

A E

Let us speed up

A B

Or get blown over

E B

Time's wasting

C#m G#m

How much longer

A E

Before I get myself free

A B

Of these hurricane streets?





Interlude:



https://www.coveralia.com/acordes/hurricane-streets-hey-monday.php

Guitar 2:

Plays Second 'line' INTRO



Guitar 1:

B - E





VERSE 2:

E B

Headed for disaster

C#m (G#) A

Way beyond the fear

E

In the rear view

B

Watch it all

C#m

just disappear

A

Disappear

E

I don't care

B

where I'm headed

C#m (G#) A

Anywhere but here

E

Won't waste my life

B C#m

Can't waste another night

A B

In this town this town



E B C#m G#m

Live faster, love stronger

A E

Let us speed up

A B

Or get blown over

E B

Time's wasting

C#m G#m

How much longer

A E

Before I get myself free

A B

Of these hurricane





BRIDGE :

A

Leaves are blowing

B

down the streets

C#m

Wind crawling up our knees

E

Somebody get the keys

A B

Rain is flowing from the sky

A

But no fear in our eyes

B

We're ready to fly





(Repeat Chorus 1 twice)

Letra subida por: Anónimo

Discos en los que aparece este acorde: Hold On Tight

El acorde de Hurricane Streets de Hey Monday es una versión de la canción original realizada por colaboradores/usuarios de Coveralia.

¿Has encontrado algún error en esta página? Envíanos tu corrección del acorde