música
Buscador

Acorde de Hurricane 2.0 (feat. Kanye West) - 30 Seconds To Mars

Letra de Hurricane 2.0 (feat. Kanye West)





e Am:|0| F: |1| G: |3| E7: |0| E: |0|

B |1| |1| |0| |0| |0|

G |2| |2| |0| |1| |1|

D |2| |3| |0| |0| |2|

A |0| |3| |2| |2| |2|

E |0| |1| |3| |0| |0|





Am F

e|-----------------------------|-----------------------------|

B|---1---1---1---1---1-3-------|---1---1---1---1---1-3-------|

G|--2---2---2---2---2----------|--2---2---2---2---2----------|

D|-2---2---2---2---2-----------|-3---3---3---3---3-----------|

A|-----------------------------|-----------------------------|

E|-----------------------------|-----------------------------|



Am F

e|-----------------------------|----------------1------------|

B|---1---1---1---1---1-3-------|---1---1---1---1-1-----------|

G|--2---2---2---2---2----------|--2---2---2---2---2----------|

D|-2---2---2---2---2-----------|-3---3---3---3-----3---------|

A|-----------------------------|-----------------------------|

E|-----------------------------|-----------------------------|



_____________________________________________________________________________



THE SONG:



*start playing notes, play them whenever you hear them in the song, you'll get the hang

of it*







-Play Into-



No matter how many times that you told me you wanted leave

No matter how many breaths that you took you still couldn't breathe

No matter how many nights that you'd lie wide awake to the sound of the poison rain

Where did you go

Where did you go

Where did you go



*stop playing notes, start playing chords*



E7

As days go by



E

The night's on fire



F G Am

Tell me would you kill to save a life



F G Am F G Am

Tell me would you kill to prove you're right crash crash burn let it all burn



F G Am

This hurricane's chasing us all underground







No matter how many deaths that I die I will never forget

No matter how many lives that I live I will never regret



*mute guitar*



There is a fire inside of this heart and a riot about to explode into flames

Where is your God

Where is your God

Where is your God



*resume playing notes*







Do you really want

Do you really want me

Do you really want me dead or alive

To torture for my sins

Do you really want

Do you really want me

Do you really want me dead or alive

To live a lie



https://www.coveralia.com/acordes/hurricane-2-0--feat--kanye-west--30-seconds-to-mars.php
F G Am

Tell me would you kill to save a life



F G Am F G Am

Tell me would you kill to prove you're right crash crash burn let it all burn



F G Am

This hurricane's chasing us all underground







Am F

The promises we made were not enough



Am F

The prayers that we had prayed were like a drug



Am F

The secrets that we sold were never known



Am

The love we had the love we had



F

We had to let it go







E7

Never giving it again,

E

Never giving in again







F G Am

Tell me would you kill to save a life



F G Am F G Am

Tell me would you kill to prove you're right crash crash burn let it all burn



F G Am

This hurricane's chasing us all underground



F G Am

Ohhhh-hooohhh-oo-wooahhh, This hurricane



F G Am

Ohhhh-hooohhh-oo-wooahhh, This hurricane



F G Am

Ohhhh-hooohhh-oo-wooahhh, This hurricane



F G

Do you really want



Am

Do you really want me



F G Am

Do you really want me dead or alive to torture for my sins



F G

Do you really want



Am

Do you really want me



F G Am

Do you really want me dead or alive to live a lie







Outro:



F F F Off - F - Off

e|-1---1--1------|-1---1---1--------|-1---1---1---------|-5---1---1--3------|

B|--1---1--1-----|--1---1---1-------|--1---1---1--------|--0---1------------|

G|---2---2-------|---2---2----------|---2---2-----------|---0---2-----------|

D|---------------|------------------|-------------------|-------------------|

A|---------------|------------------|-------------------|-------------------|

E|---------------|------------------|-------------------|-------------------|







Letra subida por: Anónimo

El acorde de Hurricane 2.0 (feat. Kanye West) de 30 Seconds To Mars es una versión de la canción original realizada por colaboradores/usuarios de Coveralia.

¿Has encontrado algún error en esta página? Envíanos tu corrección del acorde