música
Buscador

Acorde de Hoy Aprendi - El Otro Yo

Letra de Hoy Aprendi

INTRO:



Hoy aprendi.......que no se......despues de...

E --------------------------------------------------

B --------------------------------------------------

G --12-12-12-12-12-11-11-11-11-11-9--9--9--12-12----

D --12-12-12-12-12-12-12-12-12-12-12-12-12-12-12----

A --------------------------------------------------

E --------------------------------------------------



.-.-..-.-.-.-.-.-.-.-.-.-.-.-.-.-.-.-.-.-.-.-.-.-.-.

PARA LAS ESTROFAS:



(G) (G-) (E)

E ----3------3------0----------------- X

B ----3------3------0----------------- X

G ----4------4------1----------------- 0

D ----5------5------2----------------- 0

A ----5------5------2----------------- 0

E ----3------2------0----------------- 0





G Gm

hoy aprendì que no se vuelve atras

E G

despues de cruzar las barreras

G Gm E G

en medio de la nada sin nada que perder



G Gm

hoy aprendì que no se deve

E G

jusgar a nadie por lo que es

G Gm E (G,L,B,C)

sexo me enbuelve mas



C B,A,G

dame un abrazo

G A,B,C

necesito un abrazo

C B,A,G

mi arma nueva es efectiva

G A,B,C

https://www.coveralia.com/acordes/hoy-aprendi-el-otro-yo.php

dame tus manos

C B,A,G G,A,B,G

olvido el pasado viviendo el presente

G C

viviendo el presente





y al despertar

tratando de salirse

se encierra en si

se en cierra en si



tubiste tu sueño

y ese sueño termino

y no era yo

quien te amaba



niña mujer no quiero aprobecharme

de tu inocencia Y pureza

mirame bien

yo soy solo un niño...maaaassss



estribillo:



si tomo el helado

siempre vivo en verano

mi arma nueva es efectiva

dame tus manos



olvido el pasado

viviendo el presente

mi arma nueva es efectiva

dame tus manos



me encierro en mi

mi asunto es mio

mi asunto es mio

mi asunto es mio

mi arma nueva es esfectiva

dame tus manos

mi asunto es mio



Letra subida por: Anónimo

Discos en los que aparece este acorde: Colmena , Estallando Tu Lado Salvaje

El acorde de Hoy Aprendi de El Otro Yo es una versión de la canción original realizada por colaboradores/usuarios de Coveralia.

¿Has encontrado algún error en esta página? Envíanos tu corrección del acorde