música
Buscador

Acorde de Hounds - The Districts

Letra de Hounds

Main Riff

------------------------ ------------------------

------------------------ ------------------------

-----------------0-3-2-- -----------------0-3-2--

----0----------3-------- x3 ----3-0--------3--------

------3-1---/5---------- --------1---/5----------

--1--------------------- --3---------------------





F/C B

Fell down in the shower

Gm

Right as I was thinking about

F/C B

Wishing this all away

Gm

I blamed it on the bad luck

B

Before my habits became untouched

F/C B

Now they're bright as day





Gm F/C B

I'll be around

Gm F/C B

But Bernie knows it's Monday





Dm F/C B

Hounds see through my head

F/C B

Does that make you feel right?

Dm F/C B

Plans get put to bed

F/C B

Turnover hit the light

Dm F/C B

It doesn't sit right yet



(Repeat Main Riff)





F/C B

Stepped into the backyard

Gm

This place became a junkyard

F/C B

Another weight for your chest

Gm

Sweaty summer looks for better cures

B

When shut eyes will not soothe

F/C B

Lungs already filled with cigarettes





Gm F/C B

I'll be around

Gm F/C B

https://www.coveralia.com/acordes/hounds-the-districts.php

But Bernie knows it's Tuesday





Dm F/C B

Hounds see through my head

F/C B

Does that make you feel right?

Dm F/C B

Plans get put to bed

F/C B

Turnover hit the light

Dm F/C B

It doesn't sit right yet



(Riff over this next part goes something like:)

---------------------------------

---------------------------------

----------0---------0---------0--

----2-2h3-----2-2h3-----2-2h3----

--1---------1--------------------

----------------------1----------



B

I'll be around

B

I'll be around

B

The keys that you found

B

The keys that you found, do they fit right yet?





F

Hounds in my head

F

Hounds in my head

F

Hounds in my head

F

Hounds in my head

B

Hounds in my head

B

Hounds in my head

B

Hounds in my head

B

Hounds in my head

F

Hounds in my head

F

Hounds in my head

B

Hounds in my head

B

Hounds in my head

Dm F/C B

Doesn't seem right yet

Letra subida por: Anónimo

Discos en los que aparece este acorde: A Flourish And A Spoil

El acorde de Hounds de The Districts es una versión de la canción original realizada por colaboradores/usuarios de Coveralia.

¿Has encontrado algún error en esta página? Envíanos tu corrección del acorde