música
Buscador

Acorde de Horizontes - Golem

Intro/Verso :



TECLADO

E-------------------------------|------------------------

B---11--11--11--11--11----9--7--|--9--11--7----6---------

G-8-----------------------------|---------------------6--

D-------------------------------|------------------------

A-------------------------------|------------------------

E-------------------------------|------------------------



-------------------------|------------------------||

--9--9--9--9--9----7--6--|--7--9--6----4----------||

-------------------------|------------------------||

-------------------------|------------------------||

-------------------------|------------------------||

https://www.coveralia.com/acordes/horizontes-golem.php

-------------------------|------------------------||

Detrás quedo la infancia que nunca tuve

Debajo de la estatua de mis virtudes

Ya no puedo mirar más allá del tiempo

La puerta se cerró y con migo dentro



Pre-Coro :



SI5 SOL#5

Atrapado dentro

DO#5 SI5

|--------------------|-------------------

|--------------7--6--|--7--9--6--7--4----

|--------------------|-------------------

Letra subida por: Anónimo

Discos en los que aparece este acorde: Pausa

El acorde de Horizontes de Golem es una versión de la canción original realizada por colaboradores/usuarios de Coveralia.

¿Has encontrado algún error en esta página? Envíanos tu corrección del acorde