música
Buscador

Acorde de Horizontes De Libertad - Disidencia

Letra de Horizontes De Libertad


FIG. 1                      FIG. 2

e|-------------|       e|-----------|
B|-------------|       B|-----------|
G|-7-9-11-9-7--|       G|-----------|
D|-7-9-11-9-7--|       D|-7-9-11----|
A|-5-7-9--7-5--|       A|--------7--|
E|-------------|       E|-----------|



ESTOS SON LOS ACORDES (EN POWER) USADOS EN LA CANCION:

     A        D        C#       B        E       F#
E|------------------------------------------------------------|
B|------------------------------------------------------------|
G|------------7--------6-----------------9-------11-----------|
D|---7--------7--------6--------9--------9-------11-----------|
A|---7--------5--------4--------9--------7-------9------------|
E|---5--------------------------7-----------------------------|


INTRO:

GUITARRA 1(TAPPING):

e|---------------|
B|-10-12-10-14---|
G|---------------|
D|---------------|  (18 VECES APROX.)
A|---------------|
E|---------------|


GUITARRA 2:


A, D (2 VECES) LUEGO CUANDO AKABA EL TAPP HACE C#, B, A (2 VECES Y LA
                                                         SEGUNDA RAPIDO)



A
Huyendo de mí carencia por aquí

                          D (2 VECES)(Y LA SEGUNDA GUITARRA TOKA AL
deje mi Europa mi porvenir             MISMO TIEMPO LA FIG. 1)

A
Ilusiones que marcan mi dirección a seguir

                                       D (2 VECES)(SEGUNDA GUITARRA
a remolque del viento...tuve que partir            FIG. 1)

C#              B               A
Con mi ilusión por encontrar


Horizontes de libertad

C#                     B
Escapando de las sombras

              A
de la necesidad

C#            B            A
Con mi ilusión por caminar


y escaparnos de la oscuridad

C#                  B
alejando los fantasmas

               A   D, E, F#, A (Y LA SEGUNDA GUITARRA TOKA LA FIG. 2
de mi realidad                  AL MISMO TIEMPO)

A                   D
No se de donde vengo

                     A
ni se hacia donde voy

                         D   D, E, F#, A (FIG. 2)
mi identidad para adentro

A                       D
me espera un largo viaje...

                    A
tal vez no tenga fin

                   D   D, E, F#, A (FIG. 2) Y LUEGO D, E, A(PARA PASAR
escondo mi equipaje                                         AL SOLO)


SOLO:

e|-12-10-9-7-7h9p7-7-10-9-7-----------------------------------|
B|--------------------------10-10h12p10-10-13-12-10-8-8h10p8-8|
G|------------------------------------------------------------|
D|------------------------------------------------------------|
A|------------------------------------------------------------|
E|------------------------------------------------------------|


A
Obligado a la marginalidad

                                      D (2 VECES)(SEGUNDA GUITARRA
Ojos que dan la espaldan a la realidad            FIG.1)

A
Culpas y penas pueblan mi pensar

                                    D (2 VECES)(SEGUNDA GUITARRA FIG.
Una familia hambrienta que alimentar            1)

C#       B         A
Condenado a navegar


entre mares de falsedad

C#         B             A
masticando odio tragando dignidad

A                     D
no quiero que me digan

                A
si puedo decidir

                         D   D, E, F#, A (FIG. 2)
cambiar mi suerte en vida

A                        D
no me cierres las puertas

                    A
quiero salir de aquí

                   D   D, E, F#, A (FIG. 2)   D, E(PARA PASAR AL FINAL
europa no me acepta...                             CON EL TAPP)



Letra subida por: Anónimo

Discos en los que aparece este acorde: Bienvenidos A Occidente

El acorde de Horizontes De Libertad de Disidencia es una versión de la canción original realizada por colaboradores/usuarios de Coveralia.

¿Has encontrado algún error en esta página? Envíanos tu corrección del acorde