música
Buscador

Acorde de Hijos Del Odio - Tierra Santa

Letra de Hijos Del Odio



Intro

Riff 1 (2v)

E|--------------------------------------------------

B|--------------------------------------------------

G|----------------------------2-2---2---------------

D|----------2---2-3-2-3-5-3-5-----5--5-3-3/2--------

A|------5-5---5-------------------------------------

E|-/6-3---------------------------------------------



E|--------------------------------------------------

B|--------------------------------------------------

G|------------------------2-2---2-------------------

D|------2---2-3-2-3-5-3-5-----5--5-3-3/2------------

A|--5-5---5-----------------------------------------

E|--------------------------------------------------



E|--------------------------------------------------

B|--------------------------------------------------

G|--------------------------------------------------

D|-----3-3-3-2-2-2-3-2-------3-3-3-2-2-2-3-2--------

A|-1-1-----------------5-1-1-----------------5------

E|--------------------------------------------------



E|--------------------------------------------------

B|--------------------------------------------------

G|--------------------------------------------------

D|----------------------------2---2-3-2-3-5-3-2-----

A|-----------2--2-3-2-3-5-3-5---5-------------------

E|-3-3-5-3-5---5------------------------------------



Riff 2

E|--------------------------------------------------

B|--------------------------------------------------

G|--------------------------------------------------

D|------2---------2---------2-----------2-----------

A|--5-5---5-3-5-5---5-3-5-5---5-3-1-1-1---5-3-5-5---

E|--------------------------------------------------



E|--------------------------------------------------

B|--------------------------------------------------

G|--------------------------------------------------

D|-2---------2-----------------------2--------------

A|---5-3-5-5---5-3---------3-1---------5-3-5-5------

E|-----------------3-3-3-3-----5-5-5----------------



E|--------------------------------------------------

B|--------------------------------------------------

G|--------------------------------------------------

D|-2---------2---------2-----------2----------------

A|---5-3-5-5---5-3-5-5---5-3-1-1-1---5-3-------3-1--

E|---------------------------------------3-3-3------



E|--------------------------------------------------

B|--------------------------------------------------

G|--------------------------------------------------

D|-----2---------2---------2------------------------

A|-------5-3-5-5---5-3-5-5---5-3-1-1-1--------------

E|-5-5---------------------------------3-3-3--------



-...Aquí entra la primera estrofa, con caballos de guitarra en “Palm Mute”,



D C D

Donde el dolor no tiene rival

C Bb

Entre las calles de la ciudad

C (Riff 3)

viven los hijos del hambre y de la soledad



Riff 3 (similar al anterior pero más corto)

E|--------------------------------------------------

B|--------------------------------------------------

https://www.coveralia.com/acordes/hijos-del-odio-tierra-santa.php

G|--------------------------------------------------

D|------2---------2---------2-----------2-----------

A|--5-5---5-3-5-5---5-3-5-5---5-3-1-1-1---5-3-------

E|--------------------------------------------------



D C D

vagan sin rumbo buscando un hogar

C Bb

entre las calles de la ciudad

C

son presa fácil del odio y de la vanidad

(Riff 3)+(Riff 4)



Riff 4

E|--------------------------------------------------

B|--------------------------------------------------

G|--------------------------------------------------

D|------2---------2---------2---2-3-2-3-5-3-5-------

A|--5-5---5-3-5-5---5-3-5-5---5---------------------

E|--------------------------------------------------



C A

Aprietan las cadenas

(Riff 4)

De la esclavitud

C C

Trafican con sus Cuerpos

(Riff 4) C

Y su dolor (y la ley)

A

Absuelve a los culpables

(Riff 4)

De asesinar

C A

A niños sin más delito

(Riff 5)2v

Que nacer



Riff 5

E|--------------------------------------------------

B|-/3-3-1---1-3-3-1---1-3-3-1---1-3-----------------

G|--------2---------2---------2---------------------

D|--------------------------------------------------

A|--------------------------------------------------

E|--------------------------------------------------



Solo(Se los debo, aún estoy trabajando en ello)



...-Luego la segunda estrofa y el coro se repiten igual-....



II

Se abre la Vela la caza empezó

Bajo el asfalto rezo una oración

Para que cese ya el odio y

Surja la razón



Romped las cadenas del viejo opresor

Con dardos de sangre, verdad y valor

Y que recuerden por siempre la

ley de su Dios



Aprietan las cadenas de la esclavitud

Trafican con sus cuerpos y su dolor

y la ley, absuelve a los culpables de asesinar

A niños sin más delito que nacer...



...-finaliza con el (Riff 5) y (Riff2) sucesivamente)-...







Letra subida por: Anónimo

Discos en los que aparece este acorde: Medieval

El acorde de Hijos Del Odio de Tierra Santa es una versión de la canción original realizada por colaboradores/usuarios de Coveralia.

¿Has encontrado algún error en esta página? Envíanos tu corrección del acorde