música
Buscador

Acorde de Heaven Sent - Inxs

Letra de Heaven Sent





Intro/Verse



e-3-3-3-3-0-0-0-0-0-0-0-0-3-3-3-2-2-2-2-2-------

b-3-3-3-3-2-2-2-2-1-1-1-1-3-3-3-3-3-3-3-3-------

g-----------------------------------------------

D-----------------------------------------------

A-----------------------------------------------

E-----------------------------------------------



During the chorus the following riff is played



e-----------------------------------------------

b-----------------------------------------------

g-----------------------------------------------

D-----------------------------------------------

A----7-5----------------------------------------

E-0------7-5-3---3-0-3-5------------------------









Fill

|--------|

|--------|

|--------|

|--------|

|------0-|

|-0--3---|



G A7

Your eyes are like

C G D

Deep wells of desire

Once in your arms

I'm on fire



You were sent girl so

Perfectly true

Changing my life

I'm a survivor





E G (fill)

Heaven sent

https://www.coveralia.com/acordes/heaven-sent-inxs.php

E G (fill)

That's what I call you



Late at night when the

Evening fire has died

There's look in your eye

Seductive images fly





Heaven sent

That's what I call you



E G

One day you'll see

E G

What angels can see



F

Dressed in black

If she comes back

Am D Dsus4 D

I think I loose my mind



Tuesday she works in the

Library uptown

Some useful knowledge

Can always be found

Don't burn the library till

You've read all the books

Sometimes in life

You'll get the second look



G A7 C



Chords

G 320033

A7 002020

C 032010

E 022100

D 000232

Dsus4 000233







Letra subida por: Anónimo

El acorde de Heaven Sent de Inxs es una versión de la canción original realizada por colaboradores/usuarios de Coveralia.

¿Has encontrado algún error en esta página? Envíanos tu corrección del acorde