Quantcast
música
Buscador

Acorde de Hear Me Now - Secondhand Serenade

Letra de Hear Me Now

[Intro] Dm - Bb - F - A    (x2)



[Verse]

Dm Bb

Left everything behind me,

F A7

Searching for the strength I thought I had inside me,

Dm Bb

Left you behind so lonely,

F A7

Praying for the day that you would somehow find me



[Prechorus]

Dm

I was young



(You were wrong)

Bb

But I tried

F A

(I was trying to give that I had lost through all I see)



[Chorus]

F

Hear me now

A7 Dm

All I can say is I am not afraid,

Bb (C) F

Of the world that I am trying to put you in,

A7

I fight everyday,

Dm

But I am to blame,

Bb

I am not innocent,

(C) Dm

But I am not afraid



[Interlude] Dm - Bb - F - A7



[Verse 2]

Dm Bb

I lost all the things inside me,



(Inside me)

F A7

Still have found myself with all the will to

Dm

Free me from you,



I'm asleep,

Bb

I'm happy,



(I'm happy)

F A7

Want to know so much for you to someday see me



[Prechorus]

Dm

Tell me how,



(I want to)

Bb

Sing it loud,

F A-A-A7-A

(I need you to be the one who catches all my dreams)



[Chorus]

F

Hear me now

A7 Dm

All I can say is I am not afraid,

Bb (C) F

Of the world that I am trying to put you in,

A7

I fight everyday,

Dm

But I am to blame,

Bb

https://www.coveralia.com/acordes/hear-me-now-secondhand-serenade.php

I am not innocent,

(C) F A7

But I am not afraid anymore,

Bb

I am not afraid,

Bbm

Anymore...



[Bridge]

Dm

I'm tired of sleeping,

C

Alone I've been grieving,

A A7-A (G - E)

The life that I gave up to feel alive,

Bb/F C/E C

I want to feel alive..



[Interlude/Solo] F - C - Dm-Bb - F - C



e|-----------8-8-------------------8-8------------|

B|---------------10-10-10--------------10-10-10---|

G|--10-10-10--------------10-10-10----------------|

D|------------------------------------------------|

A|------------------------------------------------|

E|------------------------------------------------|



e|--------8-8----------------8-8----8-10----------|

B|------------10-10-10-----------10---------------|

G|--9-9-9--------------9-9-9----------------------|

D|------------------------------------------------|

A|------------------------------------------------|

E|------------------------------------------------|



e|-----------8-8----------------6-6-6-6-8---------|

B|---------------10-10-10-------------------------|

G|--10-10-10--------------7-7-7-------------------|

D|------------------------------------------------|

A|------------------------------------------------|

E|------------------------------------------------|



e|------------------------------------------------|

B|-----------11-11-10-10-10-------8-8-8-8-10------|

G|--10-10-10----------------9-9-9------------10~--|

D|------------------------------------------------|

A|------------------------------------------------|

E|------------------------------------------------|



[Outro]

F

I'm not afraid,

C

Anymore,

Dm - Bb

I'm not afraid,

F C

Anymore,



F

I'm not afraid,(I want to feel alive)

C

Anymore,(I want to feel alive)

Dm Bb

I'm not afraid,(I want to feel, I need to feel)

F C

Anymore,(I want to feel alive)



F

I'm not afraid, (Hold on tight)

C

Anymore, (Let's make this right)

Dm Bb

I'm not afraid (Take me, come with me, feel alive tonight)

F C F

Anymore...



End on F



Letra subida por: Anónimo

Discos en los que aparece este acorde: Hear Me Now

El acorde de Hear Me Now de Secondhand Serenade es una versión de la canción original realizada por colaboradores/usuarios de Coveralia.

¿Has encontrado algún error en esta página? Envíanos tu corrección del acorde