música
Buscador

Acorde de Head Over Heels - Tears For Fears

Letra de Head Over Heels

Intro: (C  D4) 





e|--3--2--0---0------3--2--0---0----|

B|----------3---1------------3----1-|

G|----------------------------------|

D|----------------------------------|

A|----------------------------------|

E|----------------------------------|



Parte da guitarra



e|----------------------|

B|----------------------|

G|--/9-7--7/14-12-14-12-|

D|----------------------|

A|----------------------|

E|----------------------|



e|--------------------------------------------17-15-|

B|--13-12--10-----12h13p12--10----------------------|

G|-------12--9------------12---9--7/9-7-14-12-------|

D|--------------------------------------------------|

A|--------------------------------------------------|

E|--------------------------------------------------|



A9 A C7+ C

I wanted to be with you alone

A9 A C7+ C

And talk about the weather

A9 A C7+ C

But traditions I can trace against the child in your face

A9 A C7+ C

Won't escape my attention

A9 A C7+ C

You keep your distance with a system of touch

A9 A C7+ C

And gentle persuasion

A9 A C7+ C

I'm lost in admiration, could I need you this much

A9 A C7+ C

Oh you're wasting my time, you're just, just, just wasting time



G Em

Something happens and I'm head over heels

G Em

I never find out 'til I'm head over heels

G Em

Something happens and I'm head over heels

Bb

Ah don't take my heart don't break my heart don't don't don't throw it away



Riff do Refrão (2x)



https://www.coveralia.com/acordes/head-over-heels-tears-for-fears.php

e|--5-3-2-3-2-----|

B|------------5---|

G|--------------4-|

D|----------------|

A|----------------|

E|----------------|





A9 A C7+ C

Throw it away

A9 A C7+ C

Throw it away



A9 A C7+ C

I made a fire and watching it burn

A9 A C7+ C

I thought of your future

A9 A C7+ C

With one foot in the past now just how long will it last

A9 A C7+ C

No, no, no have you no ambition

A9 A C7+ C

My mother and my brothers used to breathing clean air

A9 A C7+ C

And dreaming I'm a doctor

A9 A C7+ C

It's hard to be a man when there's a gun in your hand

A9 A C7+ C

Oh I feel so...



G Em

Something happens and I'm head over heels

G Em

I never find out 'til I'm head over heels

G Em

Something happens and I'm head over heels

Bb

Ah don't take my heart don't break my heart don't don't don't throw it away



{Repetir o riff da Introdução a partir de 2:46 (teclado) e 2:52 (começa a parte da guitarra) até "...little man"}



C D4

And this is my four leaf clover

C D4

I'm on the line, one open mind, this is my four leaf clover

C D4

La la la la la, la la la la la, la la la la la la (3 Vezes)

C D4

La la la la la, la la la la in my mind's eye

C

One little boy, one little man, funny how

Am/D

Time flies

Letra subida por: Anónimo

El acorde de Head Over Heels de Tears For Fears es una versión de la canción original realizada por colaboradores/usuarios de Coveralia.

¿Has encontrado algún error en esta página? Envíanos tu corrección del acorde