música
Buscador

Acorde de Hackensack - Fountains Of Wayne

Letra de Hackensack



- Capo on 3nd fret, all chords are named relative to the position of

the capo.



Intro chords: Am C F C E (x1)



=======Intro solo===========

E----------------------------------------------------------------|

B----------------------------------------------------------------|

G--------5-------------------------------------------------------|

D--5-3-5-----5-----3-5---5--------------6---5--------------------|

A----------------6----------------6-5-6---------6----------------|

E----------------------------------------------------------------|





Am C

I used to know you when you were young

F C E

You were in all my dreams

Am C

We sat together in period one

F C E

Fridays at eight-fifteen

Am C

Now I see your face in the strangest places

F C E

Movies and magazines

Am C

I saw you talking to Christopher Walken

F C

On my TV screen





F C

But I will wait for you

F G(open) E

As long as I need to

Am C

And if you ever get back to Hackensack

F C

I'll be here for you





Am C

I used to work in a record store

F C E

Now I work for my dad

https://www.coveralia.com/acordes/hackensack-fountains-of-wayne.php

Am C

Scraping the paint of the hardwood floors

F C E

The hours are pretty bad

Am C

Sometimes I wonder where you are now

F C E

Probably in LA



Am C

That seems to be where everybody

F C E

Else ends up these days





F C

And I will wait for you

F G(open) E

As long as I need to

Am C

And if you ever get back to Hackensack

F C

I'll be here for you



========REPEAT THE Chorus===========





==== Solo =======

E----------------------------------------------------------------|

B--------4---------------4---------------3---------------4-------|

G----------------------------------------------------------------| 2X

D--5---------------5---------------3---------------5-------------|

A----6---------------6---------------5---------------6-----------|

E----------------------------------------------------------------|



E----------------------------------------------------------------|

B--------4---------------4---------------3---------------3-------|

G----------------------------------------------------------------|

D--5---------------5---------------3---------------3-------------|

A----6---------------6---------------5---------------5-----------|

E----------------------------------------------------------------|



======Play Chorus again===========



========End with playing the intro=========

Letra subida por: Anónimo

Discos en los que aparece este acorde: Welcome Interstate Managers

El acorde de Hackensack de Fountains Of Wayne es una versión de la canción original realizada por colaboradores/usuarios de Coveralia.

¿Has encontrado algún error en esta página? Envíanos tu corrección del acorde