música
Buscador

Acorde de Hablando De La Libertad - La Renga

Letra de Hablando De La Libertad



INTRO:



D A G

E|---------------------------------------------------------|

B|---------------------------------------------------------|

G|---------------------------------------------------------|

D|--7--7-5-4-4h5h4-----------------------------------------|

A|--5--------------7--7-5-4-4h5h4---5---3-2-0-3-2-0-2/3-5--|

E|-----------------5----------------3----------------------|





D A G

E|---------------------------------------------------------|

B|---------------------------------------------------------|

G|---------------------------------------------------------|

D|--7--7-5-4-4h5h4-----------------------------------------|

A|--5--------------7--7-5-4-4h5h4---5---3-2-0-3-2-0-2/3--7-|

E|-----------------5----------------3--------------------5-|







A G D

Hice a mi cuerpo amigo del viento y la distancia

A G D

y me fui a buscarle una verdad a mi corazón

A G D

algo tan grande como el cielo y las montañas

A G D

y tan pequeño como una gota de rocío.



A G D

Y ya no estuvo mas conmigo mi corazón

A G E

se fue a posar en cada una de las cosas

A G D

y ya no estuvo mas conmigo mi corazón

A G E

su fue a fundir con la escencia y la sabia.



D C

Y ahora solo un camino he de caminar,

A G E

cualquier camino que tenga corazón.

D C G-B-C / D

Atravesando todo su largo sin aliento

C A

dejando atrás mil razones en el tiempo.



Bb

Y voy queriendo ser libre,

F

encontrar mi lado salvaje,

C

ponerle alas a mi destino,

G

romper los dientes de este engranaje.



Y voy queriendo ser libre,

encontrar mi lado salvaje,

ponerle alas a mi destino,

romper los dientes de este engranaje.





INTER:





G D A G D

E|----------------------------------------------------------------------------------|

B|----------------------------------------------------------------------------------|

G|----------------------------------------------------------------------------------|

D|----------------------7-----7-5-4-4h5h4--------------------------------------7----|

A|--5---3-2-0-3-2-0-2/3-5-----------------7---7-5-4-4h5h4--5---3-2-0-3-2-0-2/3-5----|

E|--3-------------------------------------5----------------3------------------------|





D A G D

E|---------------------------------------------------------| |

B|---------------------------------------------------------| |

G|---------------------------------------------------------| |

https://www.coveralia.com/acordes/hablando-de-la-libertad-la-renga.php

D|--7--7-5-4-4h5h4--------------------------------------7--| |

A|--5--------------7--7-5-4-4h5h4---5---3-2-0-3-2-0-2/3-5--| |

E|-----------------5----------------3----------------------| |





SOLO SAXO (acompañamiento): A - G -B-C-D - A

A - G -B-C-D - A.







A G D A

E|--------------------------------------------------------------|

B|--------------------------------------------------------------|

G|-------7-6---9--7-6------5-4---7--5-4-------------------------|

D|-----------7---------5*------5---------7----7-4---------------|

A|--7------------------------------------5--------7-5-7-5--7----|

E|--5------------------------------------------------------5----|



A G D A

E|--------------------------------------------------------------|

B|--------------------------------------------------------------|

G|-------7-6---9--7-6------5-4---7--5-4-------------------------|

D|-----------7---------5*------5---------7----7-4---------------|

A|--7------------------------------------5--------7-5-7-5--7----|

E|--5------------------------------------------------------5----|







A G D

Hice un lugar en el refugio de mis sueños

A G D

Y guardé ahí mi tesoro mas preciado

A G D

donde no llega el hombre con sus jaulas

A G

ni la maquinaria de la supervivencia.



A G D

Me fue más fácil intentar la vida

A G E

que venderla al intelecto y la conformidad.



Y ahora solo un camino he de caminar,

cualquier camino que tenga corazón.

Atravesando todo su largo sin aliento

dejando atrás mil razones en el tiempo.



Y voy queriendo ser libre,

encontrar mi lado salvaje,

ponerle alas a mi destino,

romper los dientes de este engranaje.



Y voy queriendo ser libre,

encontrar mi lado salvaje,

ponerle alas a mi destino,

romper los dientes de este engranaje.







G D A G D

E|----------------------------------------------------------------------------------|

B|----------------------------------------------------------------------------------|

G|----------------------------------------------------------------------------------|

D|----------------------7-----7-5-4-4h5h4--------------------------------------7----|

A|--5---3-2-0-3-2-0-2/3-5-----------------7---7-5-4-4h5h4--5---3-2-0-3-2-0-2/3-5----|

E|--3-------------------------------------5----------------3------------------------|





D A G D

E|--------------------------------------------------------------------------------|

B|--------------------------------------------------------------------------------|

G|--------------------------------------------------------------------------------|

D|--7--7-5-4-4h5h4-------------------------------------------------------------7--|

A|--5--------------7--7-5-4-4h5h4---5---3-2-0-3-2-0--3-2-0-3-2-0--3-2-0-3-2-0--5--|

E|-----------------5----------------3---------------------------------------------|







Letra subida por: Anónimo

El acorde de Hablando De La Libertad de La Renga es una versión de la canción original realizada por colaboradores/usuarios de Coveralia.

¿Has encontrado algún error en esta página? Envíanos tu corrección del acorde