música
Buscador

Acorde de Guacho Caracú - Viejas Locas

Letra de Guacho Caracú



Intro: SOL



SOL DO SOL

Como un perro enfurecido ladrándole al vecino estoy,

DO RE

como un perro enfurecido, quiero mi porción.



SOL

No me la saquen de las manos

DO

que ya no quiero más huesos pelados

SOL

como un perro enfurecido

RE SOL

I want to plástico.



SOL

Y si las hormigas te siguen

DO SOL

será porque reclaman tu miel

RE

un rico dulce que refresca y trae más sed.



SOL

No me la saquen de las manos

DO

que ya no quiero más huesos pelados

SOL

como un perro enfurecido

https://www.coveralia.com/acordes/guacho-caracu-viejas-locas.php

RE SOL

I wannna plástico.





SOL

E|---------------------

B|---------------------

G|---------------------

D|------5----3---------

A|---------5---5-3h4h5-

E|-3--3----------------



DO

E|---------------------

B|---------------------

G|------5---3----------

D|--------5---5--3h4h5-

A|-3--3----------------

E|---------------------



RE

E|---------------------

B|---------------------

G|------7---5----------

D|--------7---7--5h6h7-

A|-5--5----------------

E|---------------------





Letra subida por: Anónimo

Discos en los que aparece este acorde: Contra La Pared

El acorde de Guacho Caracú de Viejas Locas es una versión de la canción original realizada por colaboradores/usuarios de Coveralia.

¿Has encontrado algún error en esta página? Envíanos tu corrección del acorde