música
Buscador

Acorde de Gravestone Hill - Lunatic Soul

Letra de Gravestone Hill

Chords:

E 022100

Am x02210

Asus4 x02240

G#/Am 4xx210

G/Am 3xx210

F#/Am 2xx210



intro:



e|----7---7---7---7-8---5---5---5---5-----------------------0------0-------------|

B|-----0---0---0---0-----0---0---0---0---0---0---0---0---0---0--0---0------------|

G|------5---5---5---------5---5---5-------5---5---5---5---5---5--5---5-----------|

D|-----------------------------------------6---6---6---6---6------6--------------|

A|----0--------------------------------------------------------------------------|

E|---------------------------------------0---------------0------0----------------|



[push it slow]:

Am

When they met after years

E

One day, They went to the hill

Am

Where the old gravestone stood

E

in the shade Lonely



Am G#/Am

Admiring the city lights

G/Am

They started a new life

F#/Am

Their love was reborn



Asus4

The old gravestone

Am

Forgotten by time

Asus4 Am

Remained in the shade



https://www.coveralia.com/acordes/gravestone-hill-lunatic-soul.php

Guitar 1: intro part.

Guitar 2:



e|---12------10----12--------------------------------------------------------|

B|---13--10--12----13-13------12/13--12--10--9-10-12-------------------------|

G|-------------------------------------------------------9/10/9----9---------|

D|------------------------------------------------------------------12-10-9--|

A|---------------------------------------------------------------------------|

E|---------------------------------------------------------------------------|



Am

Winter came earlier

E

Than last year when they moved on

Am

They returned The whole family

E

Happy with memories and snow

Am G#/Am

Children were sledding So joyful

G/Am

They looked at them Smiling

F#/Am

Embraced with love





Asus4

The old gravestone

Am

Forgotten by time

Asus4 Am

Remained in the shade

Asus4 Am Asus4

Alone





Asus4 Am

Remained in the shade

Asus4 Am Asus4

Alone

Letra subida por: Anónimo

Discos en los que aparece este acorde: Lunatic Soul II

El acorde de Gravestone Hill de Lunatic Soul es una versión de la canción original realizada por colaboradores/usuarios de Coveralia.

¿Has encontrado algún error en esta página? Envíanos tu corrección del acorde