música
Buscador

Acorde de Gotitas - Garras De Amor

INTRO: Fm,Abm,D#,G#,C



E---------------------------------------

B-------6----------6------------------5-

G---6-8---8-6--6-8---8-6--5-5-6-5-6-5---

D-8-----------8-------------------------

A---------------------------------------

E---------------------------------------







Parte I



Fm

No sueñes



E----------

B----------

G----------

D----------

A------3-1---

E-1-3-4-------

Ab Fm

..con este amor tan imposible



D# G#

si el que te gusta ya tiene otro amor

C

y no se fija en vos.



Fm Ab Fm

Despierta...la vida tiene dos caminos



https://www.coveralia.com/acordes/gotitas-garras-de-amor.php

D# G# C

y tu tomaste el equivocado..por eso lloras





CORO:

Fm Ab

Son gotas , gotitas de lluvia...



D# G# C

de tus ojos caen por tus mejillas (bis)



Ab Fm

Son lagrimas de amor , son penas de dolor



C# C

si tu amor se fue y no volverá.





Parte I



Coro II parte:



C# C

Si tu amor se fue y no volvera..



C# D# Fm

mi amor iehh na na



DESPUES VIENE LA TROMPETA



CON ESTOS ACORDES: C#,D#,Fm

Letra subida por: Anónimo

El acorde de Gotitas de Garras De Amor es una versión de la canción original realizada por colaboradores/usuarios de Coveralia.

¿Has encontrado algún error en esta página? Envíanos tu corrección del acorde