música
Buscador

Acorde de Got No Place To Go - Gabriella Cilmi

Letra de Got No Place To Go



Intro - Ab



Verse:



Ab

Fuel can take a minute to light

B C#

Wonderland aint built in a night

Ab

Two can burn a bridge in a day

B C#

Now one of us is walking away

Ab

Don't believe the stories your told

B C#

Not everything that glitters is gold

Ab

Love is just a word that we say

B C#

Now one of us is walking away, away, away



Chorus:



Ab Ab7M

And I, I got no place to go

Bbm

Yeah I hate it when I am feeling cold

https://www.coveralia.com/acordes/got-no-place-to-go-gabriella-cilmi.php

Db

Only get it when I'm feeling low

Ab Ab7M

Way back then my soul brother was my home

Bbm

There's a caterpillar in my soul

Db

S'what you get when you don't get no



Verse & Chorus repeats. Fill is the same as Verse.



Verse Bassline:



E||----------------------|----------------------|----------------------|

B||----------------------|----------------------|----------------------|

G||----------------------|----------------------|----------------------|

D||-------6--------------|-------6--------------|-------9--------------|

A||------------6----4----|------------6----4----|------------9----6----|

E||--4-------------------|--4-------------------|--7-------------------|



------------------------||

------------------------||

------------------------||

-------11---------------||

-------------11----9----||

--9---------------------||



Letra subida por: Anónimo

Discos en los que aparece este acorde: Lessons To Be Learned

El acorde de Got No Place To Go de Gabriella Cilmi es una versión de la canción original realizada por colaboradores/usuarios de Coveralia.

¿Has encontrado algún error en esta página? Envíanos tu corrección del acorde