música
Buscador

Acorde de Give It All Back - The Pierces

Letra de Give It All Back





chords:

G# Fm C# Fm(*)

e|--4-------1------4-------8-----------|

B|--4-------1------6-------9-----------|

G|--5-------1------6------10-----------|

D|--6-------3------6------10-----------|

A|--6-------3------4-------8-----------|

E|--4-------1------x-------x-----------|



Powerchords:

G#5 F5 C#5

e|------------------------|

B|------------------------|

G|----------10------------|

D|--6-------10-----11-----|

A|--6-------8------11-----|

E|--4--------------9------|





verse:



G#

You can't fight



Fm

To make it better



C#

You can't cry



G#

And hope that this won't end



G#

Some say love



Fm

It is forever



C#

But all I know



G#

Is that we're just friends



Chorus:

So,

Fm(*)

I'll give it all back, I'll give it all back



C#

To you



Fm(*) F(*)

https://www.coveralia.com/acordes/give-it-all-back-the-pierces.php

I'll give it all back, I'll give it all back



C#

To you.



G#

Yeah



verse:

Now you know me

Like no other

And you know when

I'm telling lies

So you believe

If you wanna

But you know I

I wanna say goodbye



[Chorus]



G#5

You can't fight



F5

To make it better



C#5

You can't cry



G#5

And hope that this won't end



G#5

Some say love



F5

It is forever



C#5

But all I know



G#5

Is that we're just friends



[Chorus]



Yeah .



(so, I'll give it all back, I'll give it all back )











Letra subida por: Anónimo

Discos en los que aparece este acorde: The Light Of The Moon

El acorde de Give It All Back de The Pierces es una versión de la canción original realizada por colaboradores/usuarios de Coveralia.

¿Has encontrado algún error en esta página? Envíanos tu corrección del acorde