música
Buscador

Acorde de Gitano - La Pulqueria

Letra de Gitano

Intro de bajo--->DO5 SOL5 DO5 SOL5 DO5 SOL5...

Intro de guitarra-->podeis hacerla punteando esto como hace

en el directo del derrame rock



|--------------------| o tambien |--6-6-5-5----------|

|--------------------| |----------7-7-6-6--|

|---5-5-4-4----------| |-------------------|

|-----------6-6-5-5--| |-------------------|

|--------------------| |-------------------|

|--------------------| |-------------------|





Desde Valenciaaaa pulqueriaaaaaaaa........^^



ritmo de ska:

DO DO LA# LA# SOL# SOL# SOL SOL DO DO RE# RE# LA# LA# SI SI



|-----------------------|X2

|-----------------------|

|----------3---------3--| FA5 DO5

|--4-4-2-4---4-4-2-4----|

|-----------------------|

|-----------------------|





SOL FA SOL

Vivimos tiempos difíciles

FA SOL

Donde unos cuantos cruzando fronteras

FA SOL FA SOL

Van por el mundo entre glorias y penas





SOL FA SOL

Si hace mal tiempo antes de marchar,

FA SOL

Sonreirán a las lluvias del este

FA SOL FA SOL

Mostrando el oro que crece en sus dientes





DO DO LA# LA# SOL# SOL# SOL SOL

Gitaanoooooo....

DO DO RE# RE# LA# LA# SI SI (x5)

Hoy me siento gitaaanooooooo [X2]



|------------------------------|

|------------------------------|

|----------3---------3---------| FA5 DO5

|--4-4-2-4---4-4-2-4---4-4-2-4-|

|------------------------------|

|------------------------------|



SOL FA SOL

No es una crisis de identidad,

https://www.coveralia.com/acordes/gitano-la-pulqueria.php
FA SOL

Ni hay que pensar que uno sea un tarado

FA SOL FA SOL

Mi casa es redonda, ¿qué tiene de malo?

SOL FA SOL

Nacer aquí fue casualidad

FA SOL

Pudo haber sido otro sitio y, bien mirado,

FA SOL FA SOL

Mejor sentir que quedarse parado





DO DO LA# LA# SOL# SOL# SOL SOL

Gitaanoooooo....

DO DO RE# RE# LA# LA# SI SI (x5)

Hoy me siento gitaaanooooooo [X2]

Aquí está mi mano



|------------------------------| X3

|------------------------------|

|----------3---------3---------| FA5 DO5

|--4-4-2-4---4-4-2-4---4-4-2-4-|

|------------------------------|

|------------------------------|



Y MIENTRAS LA TROMPETA REPITE EL PUNTEO DE LA GUITARRA,

LA GUITARRA RITMICA HACE-->SOL5 FA5 DO5



Y LUEGO CUANDO VA A VOLVER A REPETIR EL ESTRIBILLO

TOCA LO DEL PRINCIPIO DE LA INTRO-> SOL5 DO5



DO DO LA# LA# SOL# SOL# SOL SOL

Gitaanoooooo....

DO DO RE# RE# LA# LA# SI SI (x5)

Hoy me siento gitaaanooooooo [X2]

Aquí está mi mano ......



|------------------------------|

|------------------------------|

|----------3---------3---------| FA5 DO5 SOL5

|--4-4-2-4---4-4-2-4---4-4-2-4-|

|------------------------------|

|------------------------------|



------------------

SOL FA

|--3--| |--1--|

|--3--| |--1--|

|--4--| |--2--|

|-----| |-----|

|-----| |-----|

|-----| |-----|

--------------------



Letra subida por: Anónimo

Discos en los que aparece este acorde: Corridos De Amor , Hey Oh Chingon , Hey Oh Chingon

El acorde de Gitano de La Pulqueria es una versión de la canción original realizada por colaboradores/usuarios de Coveralia.

¿Has encontrado algún error en esta página? Envíanos tu corrección del acorde