música
Buscador

Acorde de Girl Got A Gun - Tokio Hotel

Letra de Girl Got A Gun

 

Intro:

e|---------------------------------------------------------------------------|

B|---------------------------------------------------------------------------|

G|---------------------------------------------------------------------------|

D|---------------------------------------------------------------------------| X2

A|---0--003-05-0653----------------------------------------------------------|

E|--------------------3-003-03-033/5-----------------------------------------|



verse 1:



A5 C5

Time that we, have to talk



B5 A5

Are we on? Are we off?



A5 C5

On the phone reality



B5 A5

Every word is killing me



E5 D5

You dirty bitch, beautiful



B5 A5

Treatin' me like an animal



A5 C5

Changing rules, I never knew



B5 A5

Let me get, over you





CHOURS:



A5 C5

Girl got a gun, girl got a gun, gun, gun



D5 A5

Girl got a gun, girl got a gun, bang! bang!



A5 C5

Girl got a gun, girl got a gun, gun, gun



D5 A5

Girl got a gun, girl got a gun, gun, gun, bang! bang!



A5 C5

Girl got a gun, girl got a gun, gun, gun



G D5

Girl got a gun, girl got a gun, bang! bang!



A5 C5

Girl got a gun, girl got a gun, gun, gun



G D5

Girl got a gun, girl got a gun, gun, gun, bang! bang!







Intro:

e|---------------------------------------------------------------------------|

B|---------------------------------------------------------------------------|

G|---------------------------------------------------------------------------|

D|---------------------------------------------------------------------------| X1

A|---0--003-05-0653----------------------------------------------------------|

E|--------------------3-003-03-033/5-----------------------------------------|





verse 2:



Got my heart, I got the night

All my love, left behind

https://www.coveralia.com/acordes/girl-got-a-gun-tokio-hotel.php

Take a trip, roll the dice

I get lost, Paradise



A perfect life has begun

I'm on top, since you gone

Better off on my own

I let go, we are done



CHOURS:



Intro:

e|---------------------------------------------------------------------------|

B|---------------------------------------------------------------------------|

G|---------------------------------------------------------------------------|

D|---------------------------------------------------------------------------| X2

A|---0--003-05-0653----------------------------------------------------------|

E|--------------------3-003-03-033/5-----------------------------------------|





Bridge:

e|---------------------------------------------------------------------------|

B|---------------------------------------------------------------------------|

G|---------------------------------------------------------------------------|

D|-----------------------------0------------0--------------------------------| X2

A|--075-03-033---075-03-033------3-02-022-----3-02-022-----------------------|

E|----------------------------3------------3---------------------------------|





Am

When I move on

G

When I move on I feel desire



Am

You can move on, you can move on

G

Now I got into your love





LAST CHOURS:



Am Gsus4

Girl got a gun, girl got a gun, gun, gun



G D

Girl got a gun, girl got a gun, bang! bang!



F C

Boy better run boy better run run run



G Am

Girl got a gun, girl got a gun, gun, gun, bang! bang!



A5 C5

Girl got a gun, girl got a gun, gun, gun



G D5

Girl got a gun, girl got a gun, bang! bang!



A5 C5

Boy better run boy better run run run



G A5

Girl got a gun, girl got a gun, gun, gun, bang! bang







Thank you for watching,,,))))



************************************



| / slide up

| x Mute note



************************************

Letra subida por: Anónimo

Discos en los que aparece este acorde: Kings Of Suburbia , Kings Of Suburbia (Deluxe Edition)

El acorde de Girl Got A Gun de Tokio Hotel es una versión de la canción original realizada por colaboradores/usuarios de Coveralia.

¿Has encontrado algún error en esta página? Envíanos tu corrección del acorde