música
Buscador

Acorde de Get Over You - Sophie Ellis-Bextor - Tanga Girls Compilation

Symbols: 

h=hammer-on

/=slide-up



INTRO(with distortion):



e|----------------|----------------|

B|----------------|----------------|

G|----------------|----------------|

D|----------------|----------------|

A|----------------|-3/5-5---3/5-5--|

E|-3/5-5---3/5-5--|----------------|



1st VERSE:



Am

"You think you've got your way

But baby there's a catch

Dm

Don't need your foul play

Now you have met your match

Am

You think you're in control

But that won't last that long

Dm

You thought you wore the crown

Honey, you were wrong".



This is heard during this part:

e|-8---------7---------8------7--------|

B|-------------------------------------|

G|---9---------9----9----9------9----9-|

D|-----10--------10--------10-----10---|

A|-------------------------------------|

E|-------------------------------------|



e|--------------------------------|

B|-8-----6---------8-----6--------|

G|---5-----5---5-----5-----5---5--|

D|-----7-----7---------7-----7----|

A|--------------------------------|

E|--------------------------------|



PRECHORUS:



Am

"You had me taken in

Em

But now I've found you out

Am Em

And I won't go through that again

Am

You've always had to win

Em

You'll have to go without

Am

You don't know where to stop".



CHORUS:



https://www.coveralia.com/acordes/get-over-you-sophie-ellis-bextor.php

Am

"Go, go, go, go, go, I'll get over you

e|-5--------------------------------------|

B|-----8--5-------------------------------|

G|------------7----5---------------5------|

D|----------------------7-----5h7------7--|

A|----------------------------------------|

E|----------------------------------------|



Dm

You drive me crazy, up the wall,



Think you're Mr Know-it-all,

Am

Go, go, go, go, go, I'll get over you

e|-5--------------------------------------|

B|-----8--5-------------------------------|

G|------------7----5---------------5------|

D|----------------------7-----5h7------7--|

A|----------------------------------------|

E|----------------------------------------|



Dm

You drive me crazy, up the wall



Goodbye Mr Know-it-all".



(Repeat INTRO part again)



It's the same for 2nd VERSE, 2nd PRECHORUS and 2nd CHORUS parts.



After 2nd CHORUS, play INTRO part again, and then:



"You think you've got your way

But baby there's a catch

Don't need your foul play

Now you have met your match"

e|-8---------7---------8------7--------|

B|-------------------------------------|

G|---9---------9----9----9------9----9-|

D|-----10--------10--------10-----10---|

A|-------------------------------------|---|

E|-------------------------------------| |

|

e|--------------------------------| |-->x2 times:one during the

B|-8-----6---------8-----6--------| | lyrics and one after them.

G|---5-----5---5-----5-----5---5--| |

D|-----7-----7---------7-----7----|--------|

A|--------------------------------|

E|--------------------------------|



SOLO:



e|----------------------|

B|----------------------|

G|----------------------|

D|-7-5-2----------------|

A|-------5-3-------3----|

E|-----------5-3h5---5--|(x2 times)

Letra subida por: Anónimo

El acorde de Get Over You - Sophie Ellis-Bextor de Tanga Girls Compilation es una versión de la canción original realizada por colaboradores/usuarios de Coveralia.

¿Has encontrado algún error en esta página? Envíanos tu corrección del acorde