música
Buscador

Acorde de Full Circle - Half Moon Run

Letra de Full Circle

first chord :



|---------0---------|

|------3-----3------|

|---2----------2----|

|--3--3--3--3----3--|

|-1--1--1--1--1-1---|

|-------------------|



(4th time of the intro is played like this)



|-------0-----------|

|------3--3---------|

|---2-------2--3----|

|--3----------2--2--|

|-1--1---1-1-1--1---|

|-------------------|



Here are the chords



Verse Chorus (same for the bridge)

Bbmaj7 Am G F/A? Dm Fmaj7 C

|-0------0------0------0--------1------0------0-|

|-3------1------3------3--------3------1------1-|

|-2------2------3------2--------2------2------0-|

|-3------2------0------3--------0------3------2-|

|-1------0------x------0----------------------3-|

|---------------3-------------------------------|



So here it goes, I hope you get the picking.



Bbmaj7

Cap off kneeling at the back of the church,

Am

Feeling water on your brow, if it's healing it hurts

G

At first a sharpish pain that returns as a thought

F/A

That the needle in your skin will bring you closer to god



Dm Fmaj7 C

And I watch as your head turns full circle



Bbmaj7

Our hope was with a coffee and a medical text

https://www.coveralia.com/acordes/full-circle-half-moon-run.php
Am

It's too easy knowin' nothing blowing off the rest

G

And the riddles in the pages leave at too much to guess

F/A

And the worry cracks a fracture from your hip to your chest



Dm Fmaj7 C

As I watch as your head turns full circle



Bbmaj7

We got lost in the travels in the spiritual book

Am

Missed the beaches from nirvana and the way that they look

G

And the crooks they're on the island they're killin' to keep runnin'

F/A

They're running severance on the plastic and it seems to be working



Dm Fmaj7 C

Is that the best that I can do?

Dm Fmaj7 C

As I watch as your head turns full circle



Bridge : Dm Fmaj7 C (2x)



Amaj7

You appear even tempered though your looks will deceive

Am

And the sparks are always flying cause you drink for relief

G

With the heart of a child and the wit of a fool

F/A

It's a wonder why I don't try to build a wall around you



Dm Fmaj7 C

When I watch as your head turns full circle

Dm Fmaj7 C

And I watch as your head turns full circle

Dm Fmaj7 C

Yeah I watch as your head turns full circle







Letra subida por: Anónimo

Discos en los que aparece este acorde: Dark Eyes

El acorde de Full Circle de Half Moon Run es una versión de la canción original realizada por colaboradores/usuarios de Coveralia.

¿Has encontrado algún error en esta página? Envíanos tu corrección del acorde