música
Buscador

Acorde de Forrest Gump - Frank Ocean

Letra de Forrest Gump

It couldn't find it so I just figured out the chords quickly,

Guitar arrangement:

e------7-----------------------7--7-9--|
B--/10---7---10-7-10------------------7|
G--------------------------------------|
D--------------------------------------|
A--------------------------------------|
E--------------------------------------|

e----7-9----------------------7--7-9---|
B--------7---10-7-10------------------7|
G--------------------------------------|
D--------------------------------------|
A--------------------------------------|
E--------------------------------------|



Intro
(F# E ) D A Dm A

D                           A
  I wanna see your pom poms from the stands
Dm              A
  Come on, come on

D                  A
My fingertips, and my lips, they burn
         Dm           A 
From the cigarettes
                        D            A
Forrest Gump you run my mind boy
              Dm           A
Running on my mind boy       Forrest Gump

I know you Forrest
I know you wouldn't hurt a beetle
But you're so buff, and so strong
I'm nervous Forrest

Forrest Gump
Now my fingertips, and my lips, they burn
From the cigarettes
Forrest Gump you run my mind boy
Running on my mind boy
Forrest Gump

I saw your game, Forrest
I was screaming run 44
But you kept running past the end zone
Oh where'd you go Forrest

Forrest Gump
And my fingertips, and my lips, they burn
From the cigarettes
Forrest Gump you run my mind boy (yea)
Running on my mind boy
Forrest Gump

Forrest green
Forrest blues
I re-mem-ber you
If this is love, I know it's true
I won't For-get you (you)
(oh you you) it's for you Forrest
(oh you you) it's for you Forrest

Outro:
If this is love
I know it's true
I won't
For-get-you


Letra subida por: Anónimo

Discos en los que aparece este acorde: Channel Orange

El acorde de Forrest Gump de Frank Ocean es una versión de la canción original realizada por colaboradores/usuarios de Coveralia.

¿Has encontrado algún error en esta página? Envíanos tu corrección del acorde