música
Buscador

Acorde de For What It's Worth - The Cardigans

Letra de For What It's Worth

Capo On 5th Fret 



Chords Used:

C G Em Am D

e--0---3---0---0---2

b--1---0---0---1---3

g--0---0---0---2---2

d--2---0---2---2---0

a--3---2---2---0---x

E--x---3---0---x---x



Intro

Guitar 1

Em

e|------------|-------------------------------------|

B|------1p0---|-----0-----0-------0----------1p0----|

G|----0----2p0|---0----0------0------0-----0-----2p0|

D|-0h2--------|-2----2--2---2---2--2---0h2----------|

A|------------|-------------------------------------|

E|------------|-------------------------------------|



C Em

e|-------------------------|--------------|

B|----1------1------0-----0|-----0h1p0----|

G|---0----0------0-----0---|----0-----2p0-|

D|-2----2---2--2---2-2---2-|-0h2----------|

A|-------------------------|--------------|

E|-------------------------|--------------|



The cool slide part:

F Am

e|-------------------|-------------------|

B|-1/3--1p0--1p0--1p0|-1/3--1p0--1p0--1p0|

G|-2/4--2p0--2p0--2p0|-2/4--2p0--2p0--2p0|

D|-------------------|-------------------|

A|-------------------|-------------------|

E|-------------------|-------------------|



Verse part - guitar 1

D Am C G

e|-----------------------------------------------------------------|

B|-----3------3--------1-------1-------1-------1-------0------0----|

G|---2----2--------2-------2-------0-------0-------0-------0------0|

D|-0----0---0---0----2---2---2---2---2---2---2---2---0---0---0--0--|

A|-----------------------------------------------------------------|

E|-----------------------------------------------------------------|



Intro

Am

F Am x 2



G

- Hey baby come round

Dm

https://www.coveralia.com/acordes/for-what-it-s-worth-the-cardigans.php

- keep holding me down

F C

and I'll be keeping you up tonight.

G Dm

- The four letter word got stuck in my head

F

the dirtiest word that I've ever said

C

it's making me feel alright.



F Am

- For what it's worth I love you

F Am

- and what is worse I really do

F C

- oh what is worse I'm gonna run run run

G F

'till the sweetness gets to you

Am

and what is worse I love you!



G

- Hey please baby come back

Dm

there'll be no more loving attack

F C

and I'll be keeping it cool tonight.

G Dm

- The four letter word is out of my head

F

come on around get back in my bed

C

keep making me feel alright.



For what it's worth I like you

and what is worse I really do

things have been worse

and we had fun fun fun

'til I said I love you

and what is worse I really do!



For what it's worth I love you

and what is worse I really do.

(oh...)



For what it's worth I love you

and what is worse I really do.

(oh...)



For what it's worth I love you

and what is worse I really do.

(ah ah ah ah ah ah oh

ah ah ah ah ah ah oh)

Letra subida por: Anónimo

Discos en los que aparece este acorde: Long Gone Before Daylight , Best Of The Cardigans

El acorde de For What It's Worth de The Cardigans es una versión de la canción original realizada por colaboradores/usuarios de Coveralia.

¿Has encontrado algún error en esta página? Envíanos tu corrección del acorde