música
Buscador

Acorde de Fondo De Armario - Los Punsetes

Letra de Fondo De Armario

   D   Em7  Cadd9
e--2----3----3---
B--3----3----3---
G--2----0----0---
D--0----2----2---
A--0----2----3---
E--X----0----X---

[Primer bloque]*

D                             Em7
Tengo un fondo de armario suficiente
        Cadd9            D
para vestir cada día diferente.
                               Em7
Tengo un trato discreto con la gente,
      Cadd9                  D
no discuto y les sigo la corriente.
                             Em7
Tengo encerrado un animal salvaje,
         Cadd9            D
si me lo cuidas me voy de viaje.
                              Em7
En Tailandia me haré dar un masaje,
              Cadd9           D
he estado ahorrando para el pasaje.
                                Em7
Contando muertos cuento mil quinientos
      Cadd9          D
que murieron en el intento.
                          Em7
Intentando detenerme un momento,
       Cadd9           D
mil quinientos cayeron muertos.


[Segundo bloque]

                      Em7
Con las cosas así planteadas,
     Cadd9              D
tu teléfono no sirve de nada.
                     Em7
Voy a ahorrarme esa llamada,
       Cadd9                  D
sé muy bien que no estás preparada.
                        Em7
Y si me esquivas por la calle,
          Cadd9              D
si tienes miedo de que te avasalle,
                  Em7
toma nota de un detalle,
        Cadd9                  D
cuando apunto es imposible que falle.

D Cadd9 D Cadd9 D (etc.)


*
La INTRO empieza con la primera cuerda tocando un RE constante.
Luego son semicorcheas de RE en la tercera cuerda (o lo más rápido
que se pueda).
e--10-10-10-10-10-10-10-10 (constante) ----------------------
B-----------------------------------------------------------
G------------------------------------7-7-7-7-7-7-7-7-7-7-7-7 (repetido)

Durante todo el PRIMER BLOQUE de letra la guitarra sigue tocando 7 en
 LA tercera cuerda.
El bajo mientras tanto toca (en corcheas):
D--0-0-0-0-0-0-0-0---------------------------------0-0-0-0-0-0-0-0-0
A----------------------------------3-3-3-3-3-3-3-3------------------
E------------------0-0-0-0-0-0-0-0----------------------------------
(o 10-0-8-10 directamente en la sexta cuerda)

Por esta razón suena algo desnuda la primera mitad de la canción si
uno la toca solo con la guitarra que suena en el disco.
De esta manera falta la base del bajo que cambia el sonido y acompaña
a la voz. La guitarra sólo toca una nota en todo ese tramo.
Entonces al primer bloque de texto le agregué acordes para acompañar
con la guitarra aunque EN LA VERSIÓN REAL NO ESTÁN esos acordes.
Los pongo para que suene mejor el cover acústico a una sola guitarra.
Esos acordes se pueden tocar en versión normal (D-E-C) también pero
suenan mejor los que puse.


//--

Dos ALTERNATIVAS para acompañar el PRIMER BLOQUE de texto y que suene
 más parecido a la original (más despojado) aun siendo una sola persona
 con guitarra. Son todas corcheas.
A)
e----------------------------------------------------------
B----------------------------------------------------------
G--7--7--7--7--7--7--7--7--7-7-7-7-7-7-7-7-7-7-7-7-7-7-7-7-
D----------------------------------------------------------
A----------------------------------------------------------
E--10-10-10-10-10-10-10-10-0-0-0-0-0-0-0-0-8-8-8-8-8-8-8-8-

e--------------------------
B--------------------------
G--7--7--7--7--7--7--7--7--
D--------------------------
A--------------------------
E--10-10-10-10-10-10-10-10-
(repetido hasta que empieza el segundo bloque)

B)
e------------------------------------------------------------------
B------------------------------------------------------------------
G--2-2-2-2-2-2-2-2-----------------0-0-0-0-0-0-0-0-2-2-2-2-2-2-2-2-
D--0-0-0-0-0-0-0-0-0-0-0-0-0-0-0-0-0-0-0-0-0-0-0-0-0-0-0-0-0-0-0-0-
A--0-0-0-0-0-0-0-0-2-2-2-2-2-2-2-2-3-3-3-3-3-3-3-3-0-0-0-0-0-0-0-0-
E------------------0-0-0-0-0-0-0-0---------------------------------
(repetido hasta que empieza el segundo bloque)

--//


Letra subida por: Anónimo

Discos en los que aparece este acorde: Los Punsetes

El acorde de Fondo De Armario de Los Punsetes es una versión de la canción original realizada por colaboradores/usuarios de Coveralia.

¿Has encontrado algún error en esta página? Envíanos tu corrección del acorde