música
Buscador

Acorde de Fisticuffs In Frederick St. - The Toy Dolls

Letra de Fisticuffs In Frederick St.

Fisticuffs In Frederick Street by The Toy Dolls  

(original B-side of Nellie The Elephant and the song they got sued for)



Intro:

G----------------14-14-13-11---------------------

D---14-14-11-14--0--0---0-0---14-14-11-14--------

A---0---0--0--0----------------0--0--0--0---14---



G----------------14-14-13-11---------------------2---

D---14-14-11-14--0--0---0-0---14-14-11-14-11-----2---

A---0---0--0--0----------------0--0--0--0--0-----0---



ALL IN: A / D / A / E / A / D / A E / A (strum A x4)



Verse:

A D A

frederick street was on the news tonight

A D E

outside fosters club had been a fight

A D A

and every time you go to dig the beat

A G F E

you will hear a yelp and somebody shouting for help..





A D

hello, hello, hello, hello, whos down there? whos down there? (repeat x2)

E

for the fisticuffs in frederick street

A D E A (strum A x4)

i don't wanna be, i don't wanna be, you don't wanna be, you don't wanna be there



Verse:

fosters club was full up to the brim

everybody risking life and limb

and just to go and pose at the disco

but posing wasn't easy and the DJ got queasy blow by blow...



REPEAT Chorus:



Solo:

A D E E

https://www.coveralia.com/acordes/fisticuffs-in-frederick-st--the-toy-dolls.php

e---5-5-----5-5-----------------------12------12----

B---5-5-----5-5-----------------------12------12----

G-------6-------6-----------7-------9----13---------

D---------7------7-------4-7-----6-9-------14-------

A---------------------5-5-----7-7-------------------

E---------------------------------------------------



A D E E A (strum A x4)

e---5-5-----5-5------------------------3p0------------------------

B---5-5-----5-5----------------------------3p0-----------------2--

G-------6-------6-----------7-------9----------2p0-------------2--

D---------7------7-------4-7-----6-9---------------2p0---------2--

A---------------------5-5-----7-7----------------------2p0-----0--

E----------------------------------------------------------3b-----



Verse:

A D A

Everything is silent on frederick street

A D E

a lonely policeman walks the beat

A D A

before long everybody will know

A D E

that fosters club is not the place to go

A D A

unless you want your head kicking in

A G F E

you will year a yelp and somebody shouting for help





A D

hello, hello, hello, hello, whos down there? whos down there? (repeat x2)

E

for the fisticuffs in frederick street

A D E

i don't wanna be, i don't wanna be, you don't wanna be, you don't wanna be

A D E

i don't wanna be, i don't wanna be, you don't wanna be, you don't wanna be there



FINISH: A D E A

Letra subida por: Anónimo

Discos en los que aparece este acorde: On Stage In Stuttgart

El acorde de Fisticuffs In Frederick St. de The Toy Dolls es una versión de la canción original realizada por colaboradores/usuarios de Coveralia.

¿Has encontrado algún error en esta página? Envíanos tu corrección del acorde