música
Buscador

Acorde de Fique Em Silêncio - Rbd

Letra de Fique Em Silêncio



Intro

e|------3---------3---------3--5/7·-5-----------------|

B|----3---3-----5---5-----5-----------7-5-3·h5--------|

G|---4-4-4-4---4-4-4-4---5-5-5-----------------2/4~---|

D|----------------------------------------------------| x2

A|------------3---------3-----------------------------|

E|--3-------------------------------------------------|



Estrofa I

G

Te encontro sem graça

B

Dizendo o que sente

Em A

Com uma lágrima no olhar



G

Me abraça primeiro

B

Me pede um beijo

Em A

E eu não consigo nem respirar





Pre Coro

C B

Só espere um momento

Em C D

Não me diz que não é certo





CORO



G

Então fique em silêncio

Em

Cinco minutos

C

Eu preciso desse tempo

D

Vem junto a mim



G

Te darei o último beijo

Em

O mais profundo

C

Guardarei meus sentimentos

D

E aí será o fim





ESTROFA II

G

Tenho tanto medo

B

É que não entendo

Em

Que foi que eu fiz

A

Que te fez tão mal...



G

Me abraça primeiro

B

Me pede um beijo

Em A

E eu não consigo nem respirar





PRE CORO

C B

Só espere um momento

Em C D

Não me diz que não é certo





CORO

G

Então fique em silêncio

Em

Cinco minutos

C

Eu preciso desse tempo

D

Vem junto a mim



G

https://www.coveralia.com/acordes/fique-em-silencio-rbd.php

Te darei o último beijo

Em

O mais profundo

C

Guardarei meus sentimentos

D

E aí será o fim



G D



Interludio

e|------3---------3---|

B|----3---3-----5-----|

G|---4-4-4-4---4-4----|

D|--------------------|

A|------------3-------|

E|--3-----------------|



Am B o C

Muda esses planos, e troca de lado

Em

Diz que me ama

A

Que não é culpado

C

Pelo menos um momento

D

Diz que isso não é certo





Coro 2:

G

Então fique em silêncio

e-----3-3-3h5-5-3-|

B-3-5-------------|

G-----------------|

D-----------------|

A-----------------|

E-----------------|

C

Eu preciso desse tempo

e----7-10h12br10----10-12/15-12-10-|

B-10·------------12~---------------|

G----------------------------------|

D----------------------------------|

A----------------------------------|

E----------------------------------|

G

Te darei o último beijo

e-----3-3-3h5-5-3-|

B-3-5-------------|

G-----------------|

D-----------------|

A-----------------|

E-----------------|

C D G

Guardarei meus sentimentos E aí será o fim



CORO

Outro:

e-----3--------|

B---3----------|

G--4-4-4-4h5-4-|

D--------------| x4

A--------------|

E-3------------|

G

Então fique em silêncio

Em

Cinco minutos

C

Eu preciso desse tempo

D

Vem junto a mim



G

Te darei o último beijo

Em

O mais profundo

C

Guardarei meus sentimentos

D

E aí será o fim



G D





Letra subida por: Anónimo

Discos en los que aparece este acorde: Rebelde (Edicão Brasil) , Hits Em Portugues

El acorde de Fique Em Silêncio de Rbd es una versión de la canción original realizada por colaboradores/usuarios de Coveralia.

¿Has encontrado algún error en esta página? Envíanos tu corrección del acorde