música
Buscador

Acorde de Fernando Anda En Skate - Flema

Letra de Fernando Anda En Skate

Intro: 



E D

e------------------------------------------------------------------

B------------------------------------------------------------------

G------------------------------------------------------------------

D------------5----5----------------5----------------7--------------

A--7----7----------------7----7---------5------5---------5----5----

E------------------------------------------------------------------





E D

e---------------------------------------------------------------------

B---------------------------------------------------------------------

G---------------------------------------------------------------------

D--7---------------------5----5----------------5----7----5------------

A-------5----7----7----------------7----7---------------------5------5

E---------------------------------------------------------------------



E

Pantalones cortos

D

zapatillas botitas

E

https://www.coveralia.com/acordes/fernando-anda-en-skate-flema.php

y su camiseta blanca de death

D

con el flequillo largo

E

y el skate en la mano

D

y su camiseta blanca de death



E D A

Fernando anda en skate

Fernando anda en skate



El ama California

toma sol en la playa

se divierte por la arena en skate

tambien va a Mar del Plata

a saltar en la rampa

pero siempre con su tabla de surf



Fernando anda en skate

Eh tío, cuál es?

Fernando anda en skate

Eh tío, cuál es?

Letra subida por: Anónimo

Discos en los que aparece este acorde: Resaka , Resaka (2002) , Es Una Mierda

El acorde de Fernando Anda En Skate de Flema es una versión de la canción original realizada por colaboradores/usuarios de Coveralia.

¿Has encontrado algún error en esta página? Envíanos tu corrección del acorde