música
Buscador

Acorde de Feel What I Feel - Gotthard

Letra de Feel What I Feel



INTRO : Bm G D A





e|---------------|-----------------------|---------------|------------|

B|---------------|-----------------------|---------------|------------|

G|-------------6-|-7------6--7-----------|-------------6-|-7-------9--|

D|----------9----|-----------------------|----------9----|------------|

A|-------9-------|-----------------9--10-|-------9-------|------------|

E|---------------|-----------------------|---------------|------------|



e|---------------|-----------------------|---------------|------------|

B|---------------|-----------------------|---------------|------------|

G|-6-----------6-|-7------6--------6-----|-------------6-|-7------9-9-|

D|----------9----|-----------9--------9--|----------9----|------------|

A|-------9-------|-----------------------|-------9-------|------------|

E|---------------|-----------------------|---------------|------------|



e|-------------------|--------|

B|-------------------|--------|

G|-(9)-------7h9p7s6-|--------|

D|-------------------|--9-----|

A|-------------------|--------|

E|-------------------|--------|



VERSE 1



Bm G

So much for love

D A

You must've come from way above

Bm G

Just for a smile and

D A Em G/F# G G

Just for an inch I'll run a mile, I'll run a mile





Bm G

So much it seems

D A

Might only be just mirrors and steam

Bm G

Might be the wine

D A Em

But I've never known a love so 'ne

G/F# G G

Don't wanna wake up from this high



CHORUS





G D

Say that it's fate, say that it's real

A Bm

Say I'm not dreaming and you feel what I feel

A G D

https://www.coveralia.com/acordes/feel-what-i-feel-gotthard.php

Don't say I'm sleeping, don't let it end

A Em

Don't wake me up, I'll never 'nd you again

G/F# G G

I'll never 'nd you again



PLAY INTRO THEME



VERSE 2



So much to say

Perfection in every single way

I'm taking the dive

Cause I've never felt just so alive



Don't wanna wake up from this high



CHORUS



Say that it's fate, say that it's real

Say I'm not dreaming and you feel what I feel

Don't say I'm sleeping, don't let it end

A Em

Don't wake me up I'll never 'nd you again

G/F# G

I'll never 'nd you again,

Em

I'll never 'nd you again

G/F# G A

I'll never 'nd you again



Say that it's fate, say that it's real

Say I'm not dreaming and you feel what I feel

Don't say I'm sleeping, don't let it end

Don't wake me up I'll never 'nd you again



OUTRO (You can jam on it, just ask me if you want me to write the actual solo)



G D

Say that it's real, say that it's real

A Bm

Say that it's real, say that it's real



G D

Do you feel what I feel' What I feel

A Bm

What I feel, what I feel, what I feel

G D

Do you feel what I feel' What I feel

A Bm





G D A





Letra subida por: Anónimo

Discos en los que aparece este acorde: Bang! , Bang! (Limited Edition)

El acorde de Feel What I Feel de Gotthard es una versión de la canción original realizada por colaboradores/usuarios de Coveralia.

¿Has encontrado algún error en esta página? Envíanos tu corrección del acorde