música
Buscador

Acorde de Fantasía - Mercedes Ferrer



(a)La Nota se Toca como Arpegio



Ritmo 1



el acorde

tocado de esta forma



E-------------------------

B---x-x---x-x---x-x-------

G---x-x---x-x---x-x-------

D---x-x---x-x---x-x-------

A---x-x-------x-----------

e-------x-----------------



Intro



E---------------------------||

B---------0-0---0-0---0-0---||

G---------1-1---1-1---1-1---||

D------4--2-2---2-2---2-2---||

A--2-4----2-2-------2-------||

e-------------0-------------||



Se repite dos veces, y el punteo antes del Mi(E)

se hace antes de cantar.



Acordes



Todos los acordes de la canción menos Mi(E),D(Re),B7(Si7)

se tiene que hacer con cejilla en posición de F(Fa), menos C#m(Do#m)

y B(Si)para una mejor interpretación.



Se Tiene que utilizar el ritmo 1 para esta primera parte.



E G#

Mi fantasia eres tu,

F#

un recuerdo lejano

D A(a) B7(a) E

que guarde en algun lugar.





E G#

Mi teatro eres tu,

F# D A B7 G#

actuando sin publico, ni aplausos, de ficción.

B7

La verdad no encontré,

A

donde crei que estaba.

G#

Y en los suenos la vida

https://www.coveralia.com/acordes/fantasia-mercedes-ferrer.php

B

siempre fue tan real.





Intermedio



E-----------------

B-----------------

G-----------------

D-----------------

A---2-3-2-0-------

e-----------3-2---



Ritmo 2



E------------------

B---|---|---^------

G---|---|---|------

D---|---|---|------

A---v---v---|------

e------------------



Esta es la forma en la que se debe realizar el rasgueo.



Aparir de este momento no se utiliza mas el ritmo 1,

acá comienza el rasgueo.





E G#

Tu, ilusion eres tu

F# B E

una estrella que alumbra el corazón.

A

Vi la magia en tus ojos

G#

es caricia en mi piel.

F#

Es locura el deseo

E

en tu boca de miel.





C#m

En un circo de besos,

A B7 C#m

fantasía es teatro, es ilusión

A

Fantasía es teatro,

B7(a) E(a)

es ilusión.





Letra subida por: Anónimo

Discos en los que aparece este acorde: Tiempo Real , Intermedio 1986-2006

El acorde de Fantasía de Mercedes Ferrer es una versión de la canción original realizada por colaboradores/usuarios de Coveralia.

¿Has encontrado algún error en esta página? Envíanos tu corrección del acorde