música
Buscador

Acorde de Face In The Snow - Opeth

Letra de Face In The Snow

 Intro 





|-----------------------------------------------------------|

|---------------8-8-8-6----6-----4--------------------------|

|-8-5-7----8-10---8-8-5----4-4-5-2-2------8\7-5-------------|

|-8-5-4--------------------------4---4-----------4--5-------|

|----------------------------------------10\8-6-------------|

|-8-5-4-----------8-7-5----4-----2---------------5--3-------|



|-----------------------------------------------------------|

|---------------8-8-8-6----6-----4--------------------------|

|-8-5-7----8-10---8-8-5----4-4-5-2-2------8\7-5-------------|

|-8-5-4--------------------------4---4-----------4--5-------|

|----------------------------------------10\8-6-------------|

|-8-5-4-----------8-7-5----4-----2---------------5--3-------|



|-----------------------------------------------------------|

|------------------------------8--9-------------------------|

|-8---8---7------4-5-7-8-10-12-8--7--5--5-4-----------------|

|------------------------------------4--5---5---------------|

|-10--10--10----------------------------------5-------------|

|-8---8---7------3-5-7-8-10-11-8--7--5--3-------------------|



|---8-10-11-11----10----8---6-------5-2------------3-5-3-2------|

|--8--------12-12-10-10-8-8-7-7----4-------------3--------------|

|-8---------10----8-----7---5-----5------------3-----------5-7--|

|--------------------------------4-----------7------------------|

|------------------------------------------5--------------------|

|----------------------------------------3----------------------|



|--3-------3---2-------2---|

|--3-3---3-----2-2---2-----|

|--3---3-------3---3-------|

|--------------------------|

|--------------------------|

|--3-----------2-----------|







https://www.coveralia.com/acordes/face-in-the-snow-opeth.php

Structure



G#m

No more wishes for the past

Bm

No lingering on sages and seers

G#m

Desperations and fevers last

Bm

The undertows are stronger here...



Gdim F# Bm Bm/A G

And here I lie, another morning arise

Gdim F# Bm

Too far away from coming home



G#m

I see a face in the snow,

Bm

inside my head a voice calls for me

G#m

I see your face in the snow

Bm

and outside the sun is to far away to feel

Gdim F# Bm Bm/A G

And here I lie, another morning arise

Gdim F# Bm

Too far away from coming home



G#m Bm G#m Bm



Gdim F# Bm Bm/A G

And here I lie, another morning arise

Gdim F# G Em9

Too far away from coming home

Gdim F# Bm Bm/A G D/F#

And could we live within the wake of hidden lies

Em9 F#

When we're too far away...

Letra subida por: Anónimo

Discos en los que aparece este acorde: Heritage (Deluxe Edition)

El acorde de Face In The Snow de Opeth es una versión de la canción original realizada por colaboradores/usuarios de Coveralia.

¿Has encontrado algún error en esta página? Envíanos tu corrección del acorde