música
Buscador

Acorde de Expectations - Lauren Jauregui

Letra de Expectations

[Intro]

Am Em B7 Em

Repeat throughout

Am Em B7 Em

e|-------0---------------------------3-------------|

B|-------1--------0---------7--------0-------------|

G|------2---------0---------9----------------------|

D|----2----------2---------7--------2--------------|

A|--0----------2---------9--------2----------------|

E|-----------0---------7--------0------------------|



[Verse]

Am Em

I've been there all alone

B7 Em

Wondering where you've been

Am

Ten past three

Em B7 Em

No club closes at two A.M

Am Em

I've already been through those sad scenarios

B7 Em

And it doesn't change your mind

Am Em

Know it very well that you told me

You'd come home

B7 Em

And it happened every time



[Chorus]

Am Em

Wish I had no expectations

B7 Em

I wish that I could get into your head

Am Em

With no confrontation

B7 Em

Really wish we could talk about it instead

Am Em

All these tears that I've cried while I'm turned to the side

B7 Em

And you're in the same fucking bed

Am Em

Wish I had no expectations

N.C.

But I expect, you expect, we expect



[Verse]

Am Em

I don't mean to pry

B7 Em

I don't need no play by play

Am Em

All I need from your side

B7 Em

Is for you to communicate

Am Em

Oh, respect for my time, respect for my space

B7 Em

Respect for my energy

Am Em

'Cause I've been waiting here all night for you to want me

B7 Em

https://www.coveralia.com/acordes/expectations-lauren-jauregui.php

And you, have you once thought of me?



[Chorus]

Am Em

Wish I had no expectations



B7 Em

I wish that I could get into your head

Am Em

With no confrontation

B7 Em

Really wish we could talk about it instead

Am Em

All these tears that I've cried while I'm turned to the side

B7 Em

And you're in the same fucking bed

Am Em

Wish I had no expectations

N.C.

But I expect, you expect, we expect



[Solo]

e|-----------17b19r17--15-17---19-17-1514-----17p15-------------------------|

B|-----15-17---------17--------------------17~------17-15-17-----------------|

G|-/16--------------------------------------------------------14p12----------|

D|-----------------------------------------------------------------14-12-14--|

A|---------------------------------------------------------------------------|

E|---------------------------------------------------------------------------|



e|---------------------------------------------------------------------------|

B|--------------------------12-12--------------12-12-b17-12--12--------------|

G|-------------------------------b16r14p12-----------------14--b16r14p12-----|

D|------------9----------------------------14~--------------------------14---|

A|------10h12--12-10-9-9-----------------------------------------------------|

E|-10h12----------------12---------------------------------------------------|



bend up 1/2

e|---------------------------------------------------------------------------|

B|-15h17p15----------15h17p15------15h17p15----------------------------------|

G|---------16-14b------------16------------16--------------------------------|

D|------------------------------17------------16--14-12----------------------|

A|------------------------------------------------------14-------------------|

E|---------------------------------------------------------------------------|



[Chorus]

Am Em

Wish I had no expectations

B7 Em

I wish that I could get into your head

Am Em

With no confrontation

B7 Em

Really wish we could talk about it instead

Am Em

All these tears that I've cried while I'm turned to the side

B7 Em

And you're in the same fucking bed

Am Em

Wish I had no expectations

N.C.

But I expect, you expect, we expect



Discos en los que aparece este acorde: Expectations (Cd Single)

El acorde de Expectations de Lauren Jauregui es una versión de la canción original realizada por colaboradores/usuarios de Coveralia.

¿Has encontrado algún error en esta página? Envíanos tu corrección del acorde