música
Buscador

Acorde de Evitando El Ablande - Tano Romano

Letra de Evitando El Ablande

Intro:

G5/F#5/E5/C5

G5/F#5/E5/C5/F#5



1|---------------------------------------|

2|---------------------------------------|

3|---------------------------------------|x2

4|---------------------------------------|

5|-4-5-7---------------4--4/10--4--4/10--|

6|-2-3-5---0-0-0-%-%-%-2--2/8---2--2/8---|

/.pm........



(Como en la intro)

Con mis amigos

en el concierto,

de metal duro,

por sentimiento.

Es fija que me verás

estár presente

brindando aguante

con quienes sienten.



Riff 1 Riff 2

1|----------------------|-----------|

2|----------------------|-----------|

3|----------------------|-----------|

4|-4-4-4-----5-5-5------|-----------|

5|-2-2-2-%-%-3-3-3-%-%--|-5-4--5-4--|

6|----------------------|-3-2--3-2--|

/.pm................



Como yo siento latir en la sangre mía (riff 1)

salvando mis días (rif 2)

junto a so sonido brutal,mi vida (riff 1)

resiste su ruina (riff 2)



(como en la intro)

EL es reflejo

de mi presente.

Sin el no hay nada

que me contemple.

Poreso sigo

y seguire en su camino.

Del cual soy parte

y no me rindo.

Las voses de discotecas no tienen cabída,

en esta movida.

Yo repudio toda esa careta

de mersa coqueta.



Riff 3 Riff 4 Riff 5

1|------------------|---------------------------|-----|

2|------------------|---------------------------|-----|

https://www.coveralia.com/acordes/evitando-el-ablande-tano-romano.php

3|------------------|---------------------------|-----|

4|-9-9--5-7--------5|-9-9-12-10--9-9-9--7------5|5-7-2|

5|-7-7--3-5--5-4-5-3|-7-7-10-9---7-7-7--5--5-4-3|3-5-2|

6|-----------3-2-3--|----------------------3-2--|----0|



No callare (riff 3), porque me sobra aguante (riff 4)

Also mi vos (riff 3), evitando el ablande (riff4)

de ladron (riff 5)



Riff 6 Riff 7

1|--------------------------|-----------------------|

2|--------------------------|-----------------------|

3|--------------------------|-----------------------|

4|------------------5-5--4-4|2-----------------5-4--|

5|-----------2-3-5--3-3--2-2|2----------3-2-5--3-2--|

6|-0--2-3-5-----------------|0-0--2-3-5-------------|

/.pm............. /.pm............



riff 6

desenmascarar esas muecas

riff 7

y sus fingidaas istorietas

riff 6

esto que digo yo lo siento

riff 7

y saves bien que no te miento



F#5/G5/A5



SOLO



e|----------------------------------------------------------------------------------------|

B|--12t8^5-%-%--13t8^5-%-%--12t7^4-%-%--12t8^5-%-%----------------------------------------|x2

G|--------------------------------------------------12t9^5-%-%--14t9^5-%-%--11t8^4-%-%-%--|

D|----------------------------------------------------------------------------------------|

A|----------------------------------------------------------------------------------------|

E|----------------------------------------------------------------------------------------|

e|---------------------------------------------------------------------------------------|

B|--8-7-8-5--10/(12)10^8--10--8-7-8-10-8--7-8-8^7---5--10/(12)-10^8----7-8-10-10^8-7-5--|

G|-------------------------------------------------7-----------------9-------------------|

D|---------------------------------------------------------------------------------------|

A|---------------------------------------------------------------------------------------|

E|---------------------------------------------------------------------------------------|

e|--7-------------+-10-8-7---8-7------7--------------------------|

B|----10-8-8^7----+--------------10-----10-8---10-8-7--8-7-------|

G|-------------9--+----------------------------------------9-7-9-|

D|----------------+----------------------------------------------|

A|----------------+----------------------------------------------|

E|----------------+----------------------------------------------|

(supongo que es algo así con tresillos)



El final como las notas del principio

Discos en los que aparece este acorde: 25 Años De Puro Sentimiento

El acorde de Evitando El Ablande de Tano Romano es una versión de la canción original realizada por colaboradores/usuarios de Coveralia.

¿Has encontrado algún error en esta página? Envíanos tu corrección del acorde