música
Buscador

Acorde de Estrógeno - Caramelos De Cianuro

Letra de Estrógeno

   C         D        D#        D
E-----------------------------------------|
B-----------------------------------------|
G-----------------------------------------|
D-----------------------------------------|
A-3-3-0-3-0-5-5-0-5-0-6-6-0-6-0-5-5-0-5-0-|  -------] Riff 1
E-----------------------------------------|



   C         D        D#        D         C
E------------------------------------------|
B------------------------------------------|
G------------------------------------------|
D------------------------------------------|
A-3-3-0-3-0-5-5-0-5-0-6-6-0-6-0-5-5-0-5-0-3|  -------] Riff 2
E------------------------------------------|



Intro: Riff 1 x3 - Riff 2 (Justo antes de la Estrofa)


Yo ya no quiero ser un perro callejero, prefiero ser tu
perro faldero
Ser el más grosero de tus plomeros, ser tu más cotizado soltero

Riff 1
Tú siempre has sido la maestra más siniestra que me muestra
y que me adiestra

Riff 2
Y yo el adolescente más obediente, el favorito de la docente
presente

Riff 1 x2 (Silencio antes de los siguientes 2 versos)

No moverás el más minúsculo musculo, desde el atardecer al
crepúsculo
Te llevo a casa la melaza que amenaza, puro lomo, cero grasa

Riff 1 x2 (Hasta el Coro)
Dos cuerpos que se comunican emitiendo aromas
Haciendo lo que dictan nuestros cromosomas
Como un idioma de hormonas, erótico, erógeno…

Coro:
       D   D#  D    D#            D    D#  F G
Tu estrógeno, es adictivo es alucinógeno
       D   D#  D    D#            D    D#  F G   G#
Tu estrógeno, es adictivo es alucinógeno… fenómeno

Solo: Riff 1 x5
-------------------------------------------------------
Riff 1 (hasta el último Coro)

Lo bueno y malo que aprendí, lo que gané y lo que perdí
De tantas copas que tomé, de tantas cosas que aún no se

Lo bueno y malo que aprendí, lo que gané y lo que perdí
De tantas copas que tomé, de tantas cosas que aún no se

Coro:
       D   D#  D    D#            D    D#  F G
Tu estrógeno, es adictivo es alucinógeno
       D   D#  D    D#            D    D#  F G   G#
Tu estrógeno, es adictivo es alucinógeno… fenómeno
_______________________________________________________

Acordes:

Dm  E|--5-----|
    B|----6---|
    G|------7-|
    D|------7-|
    A|--5-----|

D#  E|--6-----|
    B|------8-|
    G|------8-|
    D|------8-|
    A|--6-----|

F   E|--8------|
    B|------10-|
    G|------10-|
    D|------10-|
    A|--8------|

G   E|--10-----|
    B|------12-|
    G|------12-|
    D|------12-|
    A|--10-----|

G   E|--11-----|
    B|------13-|
    G|------13-|
    D|------13-|
    A|--11-----|


Letra subida por: Anónimo

Discos en los que aparece este acorde: Caramelos De Cianuro

El acorde de Estrógeno de Caramelos De Cianuro es una versión de la canción original realizada por colaboradores/usuarios de Coveralia.

¿Has encontrado algún error en esta página? Envíanos tu corrección del acorde