música
Buscador

Acorde de Es Hora De Volverlo A Hacer - Blues Motel

Letra de Es Hora De Volverlo A Hacer

Intro:

C G

E|-------------------------|------------------------|-

B|-------------------------|------------------------|-

G|--------0----------------|------------------------|-

D|------2---2-0/2/0--------|-----------0---2-2-0----|-

A|----3-------------3------|---------2---2----------|-

E|-------------------------|-------3----------------|-

F C

E|-------------------------|------------------------|-

B|-------------------------|------------------------|-

G|---------2---1-----------|--------0---------------|-

D|-------3---3---3---------|------2---2-0/2/0-------|-

A|-----3-------------------|----3-------------3-----|-

E|-------------------------|------------------------|-

[El riff 1 y 2 se van intercalando en cada estrofa

durante toda la cancion(menos en el estribillo que

solo lleva acordes),los dos riff son similares al

'intro', salvo en la nota do,que se modifica algo al

comienzo en uno y al final en otro]



C G

Escuchas al diablo y le hablás a Dios

F C

escapás mirando alrededor...





RIFF 1

C G

E|------------------------|-------------------------|-

B|------------------------|-------------------------|-

G|-------0--------------0-|-------------------------|-

D|-----2----------0/2/3---|------------0---2-2-0----|-

A|---3-----0/2/3----------|----------2---2----------|-

E|------------------------|--------3----------------|-

F C

E|-------------------------|------------------------|-

B|-------------------------|------------------------|-

G|---------2---1-----------|--------0---------------|-

D|-------3---3---3---------|------2---2-0/2/0-------|-

A|-----3-------------------|----3-------------3-----|-

E|-------------------------|------------------------|-

https://www.coveralia.com/acordes/es-hora-de-volverlo-a-hacer-blues-motel.php



RIFF 2

C G

E|-------------------------|------------------------|-

B|-------------------------|------------------------|-

G|--------0----------------|------------------------|-

D|------2---2-0/2/0--------|-----------0---2-2-0----|-

A|----3-------------3------|---------2---2----------|-

E|-------------------------|-------3----------------|-

F C

E|------------------------|-------------------------|-

B|------------------------|-------------------------|-

G|--------2---1-----------|-------0---------------0-|-

D|------3---3---3---------|-----2-----------0/2/3---|-

A|----3-------------------|---3------0/2/3----------|-

E|------------------------|-------------------------|-



ESTRIBILLO

E F

Y aunque solo un rato te haga sentir bien

E F

es hora de volverlo a hacer,

C G

si mirando atras algo podes aprender

F Fm C

es hora de volverlo a hacer.



'Despues del estribillo viene un punteo que tambien

es similar al intro, salvo al final en DO que

termina asi:

F C

E|------------------------|-----------------------|

B|------------------------|-----------------------|

G|--------2---1-----------|-----------------------|

D|------3---3---3---------|-----3/2---------------|

A|----3-------------------|---------3/2---0-3-3---|

E|------------------------|-----------------------|



...despues la cancion termina con F - Fm - C

repitiendo los acordes varias veces.



Letra subida por: Anónimo

Discos en los que aparece este acorde: Mientras Las Guitarras Suenen

El acorde de Es Hora De Volverlo A Hacer de Blues Motel es una versión de la canción original realizada por colaboradores/usuarios de Coveralia.

¿Has encontrado algún error en esta página? Envíanos tu corrección del acorde