música
Buscador

Acorde de Equalize - Pitty

Letra de Equalize

(intro) 





E|------------------------------------------------2---3r2----------|

B|--------------3-----------3-----------------3---3--------3-------|

G|--------0--4-----------0-----4--------0--4------2----------2-----|

D|--2--4-----------2--4-----------2--4------------0------------0---|

A|-----------------------------------------------------------------|

E|-----------------------------------------------------------------|







E|------------------------------------------------2--|

B|--------------3-----------3-----------------3---3--|

G|--------0--4-----------0-----4--------0--4------2--|

D|--2--4-----------2--4-----------2--4------------0--|

A|---------------------------------------------------|

E|---------------------------------------------------|



(verso)

D C#m Bm7 E

As vezes se eu me distraio Se eu não me vigio um instante

F#m D C#m Bm7

Me transporto pra perto de você Já vi que não posso ficar tão solta

E F#m G A

Me vem logo aquele cheiro, que passa de você pra mim num fluxo perfeito



Em

Enquanto vc conversa e me beija, ao mesmo tempo eu vejo,

G A Em

as suas cores no seu olho tão de perto

G A

Me balanço devagar, como quando vc me embala o ritmo rola fácil

Em Bm



parece que foi ensaiado



(pré-refrão)

Bm A G Gm

E eu acho que eu gosto mesmo de você Bem do jeito que você é



(refrão)

D Bm D Bm D Bm A G

Eu vou equalizar você, numa freqüência que só a gente sabe

D Bm D Bm D Bm A G

Eu te transformei nessa canção, pra poder te gravar em mim (Aqui vc pode colocar distorção e

pode fazer notas D5,B5,A5 e G5)

(pós-refrão)

E|------------------------------------------------------------------10-|

B|-------------------------------------5----5-----5-----5---5--5/7-----|

G|--------------------------------7------7----7-----7-----7------------|

D|-----------------------7-7-7-9-----0----0-----0-----0----------------|

A|--------------5-5-7/9------------*-----------------------------------|

E|--3--3-3-5/7---------------------------------------------------------|



(verso 2)



E|----------14---17--15--14------------|--14---17--15--14---------|------------------|

B|---------------------------14----15--|--15---------------14-----|-------12------14-|

G|---------------------------------14--|--14----------------------|-----12-----------|

D|-12---11-----------------------------|--------------------------|---12-------14----|

A|-12---11-----------------------------|--------------------------|-10-------12------|

E|-10---9------------------------------|--------------------------|------------------|



Adoro essa sua cara de sono e o timbre| E que quase me mata de rir | Porque nós dois

da sua voz que fica me dizendo coisas | quando tenta me convencer| somos iguais



https://www.coveralia.com/acordes/equalize-pitty.php

tão malucas | que eu só fiquei aqui |







E|------------------------------------------------3-2-------|

B|--------------3-----------3-----------------3---3---3-----|

G|--------0--4-----------0-----4--------0--4------2-----2---|

D|--2--4-----------2--4-----------2--4------------0-------0-|

A|----------------------------------------------------------|

E|----------------------------------------------------------|



Até parece que você já tinha o meu manual de instruções,

porque você decifra os meus sonhos





E|--------------------------2---------------------------------------|

B|--------------3--------------3--------------3---8----------10-----|

G|--------0--4-----------0-----4--------0--4--------7-----7-----9---|

D|--2--4-----------2--4-----------2--4-----------------5----------7-|

A|------------------------------------------------------------------|

E|------------------------------------------------------------------|



Porque você sabe o que eu gosto, e porque quando você me abraça,

o mundo gira devagar



E(*)



E|------------|

B|--------(**)| (*) Tocar o Mi dessa forma nessa parte

G|--------(9)-| (**) Tocar várias vezes

D|--------(9)-|

A|-7--7-7-(7)-|

E|-0--0-0-(0)-|





Em D9 Em

E o tempo é só meu e ninguém registra a cena,

D9 Bm7

de repente vira um filme todo em câmera lenta



(pré-refrão)

Bm7 A9 G Gm

E eu acho que eu gosto mesmo de você Bem do jeito que você é



(refrão 2x)

D Bm D Bm D Bm A G

Eu vou equalizar você, numa freqüência que só a gente sabe

D Bm D Bm D Bm A G

Eu te transformei nessa canção, pra poder te gravar em mim



(último)



E|----------------------------------|----------------------------------|

B|----------------------------------|----------------------------------|

G|--------------------------------7-|--------------------------------7-|

D|-----------------------7-7-7-9----|-----------------------7-7-7-9----|

A|--------------5-5-7/9-------------|--------------5-5-7/9-------------|

E|--3--3-3-5/7----------------------|--3--3-3-5/7----------------------|





E|------------------------------------------------|

B|---------------------------------------------15-|

G|----------------------------------7--7/11-------|

D|-----------------------7--7--7--9---------------|

A|--------------5-5-7/9---------------------------|

E|--3--3-3-5/7------------------------------------|

Letra subida por: Anónimo

Discos en los que aparece este acorde: Admiravel Chip Novo , (Des) Concerto Ao Vivo (Dvd)

El acorde de Equalize de Pitty es una versión de la canción original realizada por colaboradores/usuarios de Coveralia.

¿Has encontrado algún error en esta página? Envíanos tu corrección del acorde