música
Buscador

Acorde de Enjoy Your Day - Alkaline Trio

Letra de Enjoy Your Day





Tuning: Standard

Chords used:

I was too lazy to find the real names of these chords but I did it pretty accurate

C B G F Gm

Bm Cm

e|---------------------------3-----5-----7-----8-----------------------------|

B|---------------------------3-----5-----7-----8-----------------------------|

G|------9----9---------0-----5-----7-----9----10-----------------------------|

D|-----10---10----5----3-----5-----7-----9----10-----------------------------|

A|-----10---10----5----3-----3-----5-----7-----8-----------------------------|

E|------8----7----3----1-----3-----5-----7-----8-----------------------------|



Intro:

e|---------------------------------------------------------------------------|

B|---------------------------------------------------------------------------|

G|-------------9---------------------9------------------0---------------0----|

D|-------10---------12-10------10---------12-10-----5-------5-------3---3----|

A|----10----10---10---------10----10---10---------5---5---5---5---3---3-3----|

E|--8---------------------7---------------------3---------------1-------1----|



Start out strumming the C chord



https://www.coveralia.com/acordes/enjoy-your-day-alkaline-trio.php

C B

so where'd you go? how was your vacation home?

G F

well obviously you were busy, too busy for me.

C B

G F

so this is how you leave me? i'm broken hearted on the floor.

C B

my tears seep through the crack under my door.

G F

where i am locked in, shut down.

C B G

F

i'm so tired of picking myself up off the ground.

Gm Am

so happy valentine's day. i hope the sun's out in new york.

Bm Cm

i hope he bought you roses. i hope he bought you roses.

Gm Am

so happy valentine's day. i hope the sun's out in new york.

Bm Cm

i hope he bought you roses. i hope he bought you roses.



Letra subida por: Anónimo

Discos en los que aparece este acorde: Goddamnit

El acorde de Enjoy Your Day de Alkaline Trio es una versión de la canción original realizada por colaboradores/usuarios de Coveralia.

¿Has encontrado algún error en esta página? Envíanos tu corrección del acorde