música
Buscador

Acorde de Eleven Blue Egyptians - Jason Becker

Letra de Eleven Blue Egyptians

Intro

e----------------------------------------------------------------------

b---------------------------------------------------------------------- esta parte debes tocar bien

g----7--------------------7--------------------------------------------

d--------11--8--7--8--11----11--8--7--------8--7----------------------- rapido

a-------------------------------------8--7--------8--7-----------------

e-------------------------------------------------------9~-------------



-----------------------------------------------------------------------

-----------------------------------------------------------------------

-----------------------------------------------------------------------riff repite dos veces

------2----------3--2-----------2------------3-------------------------

------0---0-0----1--0---0--0----0----0---0---1-------------------------

-----------------------------------------------------------------------



------------------------------------------------------------------------

--------------------------------------------------6---------------------

------------------------------------------5---7---3---------------------

----5----2------------3---2---------------3---5-------------------------

----3----0----0--0----1---0---0---0-------------------------------------

------------------------------------------------------------------------



https://www.coveralia.com/acordes/eleven-blue-egyptians-jason-becker.php
------------------------------------------------------------------------

------------------------------------------------------------------------

------------------------------------7---------------------7-------------

-----2-------------3---2---------------11---8--7---8--11-----11---8---7-

-----0----0---0----1---0---0---0----------------------------------------

------------------------------------------------------------------------



------------------------------------------------------------------------

------------------------------------------------------------------------repite la primera parte

------------------------------------------------------------------------mas cuatro veces

--------8--7------------------------------------------------------------

--8--7--------8--7------------------------------------------------------

---------------------9~-------------------------------------------------



------------------------------------------------------------------------

------------------------------------------------------------------------esta parte es lenta

------------------------------------------------------------------------riff continua

--------------6---7---8---7---6-----------------------------------------

--7-----8-------------------------8---7---5---7----5---4----------------

-----------------------------------------------------------5~-----------



Discos en los que aparece este acorde: Perpetual Burn

El acorde de Eleven Blue Egyptians de Jason Becker es una versión de la canción original realizada por colaboradores/usuarios de Coveralia.

¿Has encontrado algún error en esta página? Envíanos tu corrección del acorde