música
Buscador

Acorde de El Universal (En Vivo) - Kapanga

Letra de El Universal (En Vivo)

Intro:



e|-----------------------------------||

b|-----------------------------------||

g|--6/7--7-7---6/7--7-7---6/7--7-7---||

b|--6/7--7-7---6/7--7-7---6/7--7-7---||

a|--4/5--5-5---4/5--5-5---4/5--5-5---||

E|-----------------------------------||



Teclado (Tabulado para guitarra):



D A Em Bm A

e|-2-0-----------2-0----------0------||

b|-----3-------------3------3--------||

g|-------2--4-2--------2--4----------||

d|-----------------------------------||

a|-----------------------------------||

E|-----------------------------------||



D A Em Bm A

e|-2-0-----------2-0-----------------||

b|-----3-------------3------3---2----||

g|-------2--4-2--------2--4----------||

d|-----------------------------------||

a|-----------------------------------||

E|-----------------------------------||



D [Dsus4 - D]

Ayer te vi, no podia creer

A [A6 - A]

lo que pasaba por dentro de mi.

Em

Te miraba y no te pude decir nada,

Bm A

yo no sabia lo que era estar asi.



D [Dsus4 - D]

Iluminando nuestro propio cielo

A [A6 - A]

vos apareciste en mi vida.

Em

Estaba todo tan mal

Bm A

pero volvio la alegria.



G

A traves del universo

D A

voy a gritar que te quiero.

G

A traves del universo

D A

voy a gritar que te quiero.



D A

Yo quiero estar con vos,

Em Bm - A

puedo sentir que vuelo.

D A

Yo quiero estar con vos,

Em Bm - A

puedo llegar al cielo. [x2]



D [Dsus4 - D]

https://www.coveralia.com/acordes/el-universal--en-vivo--kapanga.php

En la mañana cuando me despierto

A [A6 - A] [A6 - A]

me gusta que tú estés a mi lado,



Em

las sábanas testigo de tu cuerpo desnudo

Bm A

recién después de habernos amado.



G

A traves del universo

D A

voy a gritar que te quiero.

G

A traves del universo

D A

voy a gritar que te quiero.



D A

Yo quiero estar con vos,

Em Bm - A

puedo sentir que vuelo.

D A

Yo quiero estar con vos,

Em Bm - A

puedo llegar al cielo. (x2)



Puente:

e|------------------------------------|--|

b|------------------------------------|--|

g|--7-7-7-x-4-4-4-x-------------------|--|

d|--7-7-7-x-4-4-4-x-5-5-5-x-77777777--|x2|

a|--5-5-5-x-2-2-2-x-5-5-5-x-77777777--|--|

E|------------------3-3-3-x-55555555--|--|



(Todo las quintas en PM)

G5

A traves del universo

D5 A5

voy a gritar que te quiero.

G5

A traves del universo

D5 A5

voy a gritar que te quiero.





D A

Yo quiero estar con vos,

Em Bm - A

puedo sentir que vuelo.

D A

Yo quiero estar con vos,

Em Bm - A

puedo llegar al cielo. (x2)



Fin:

e|-----------------------------------||

b|-----------------------------------||

g|--6/7--7-7---6/7--7-7---6/7--7-7---||

b|--6/7--7-7---6/7--7-7---6/7--7-7---||

a|--4/5--5-5---4/5--5-5---4/5--5-5---||

E|-----------------------------------||



Letra subida por: Anónimo

Discos en los que aparece este acorde: Todo Es Poco

El acorde de El Universal (En Vivo) de Kapanga es una versión de la canción original realizada por colaboradores/usuarios de Coveralia.

¿Has encontrado algún error en esta página? Envíanos tu corrección del acorde