música
Buscador

Acorde de El Último Polvo - Caramelos De Cianuro

Letra de El Último Polvo

Intro:



e||5-----6-----5-----8-----6-----5-----6-----5-----8------6-----

B||--6-----6-----6-----6-----6-----6-----6-----6-----6-----6----

G||----5-----5-----5-----5-----5-----5-----5-----5-----5-----5--

D||-------------------------------------------------------------

A||-------------------------------------------------------------

E||-------------------------------------------------------------



F Dm

Cuando todo acabó, cuando todo se habló

Am

Cuando por fin entiendes que el pasado pasó

F Dm

Visto desde el final, no estuvimos tan mal

Am

Los momentos hermosos siempre perdurarán

F Dm Am

Entiende por favor que aunque sienta dolor

Desde que te conozco soy un hombre mejor



C Gm Dm

Creí que indudablemente podía botarte de repente

C Gm

Fíjate si estaba equivocado

Bb

Siendo tú quien me ha botado



F Am

Quiero darte una despedida, que recuerdes toda la vida

Dm C

Esta noche venir tan solo, a que nos demos el último polvo

F Am

Quizás parezca pedir demasiado, pero yo sé que tu también lo has

Dm C

Deseado, Y si mañana se termina todo, será después de nuestro último

polvo



e||5-----6-----5-----8-----6-----5-----6-----5-----8------6-----

B||--6-----6-----6-----6-----6-----6-----6-----6-----6-----6----

G||----5-----5-----5-----5-----5-----5-----5-----5-----5-----5--

D||-------------------------------------------------------------

A||-------------------------------------------------------------

E||-------------------------------------------------------------



F Dm

Tanta desilusión, tanta desolación

Am

Hoy es de cada uno lo que fue de los dos

F Dm

https://www.coveralia.com/acordes/el-ultimo-polvo-caramelos-de-cianuro.php

Y ahora habrá que esperar lo que pueda pasar

Am

No debe haber comienzo si no ha habido final

F Dm

Y cuando salga el sol nos diremos adiós

Am

Todo será distinto para nosotros dos



C Gm Dm

Creí que indudablemente podía botarte de repente

C Gm

Fíjate si estaba equivocado

Bb

Siendo tú quien me ha botado



F Am

Quiero darte una despedida, que recuerdes toda la vida

Dm C

Esta noche venir tan solo, a que nos demos el último polvo

F Am

Quizás parezca pedir demasiado, pero yo sé que tu también lo has

Dm C

Deseado, Y si mañana se termina todo, será después de nuestro último

polvo



Bb Dm

Yo descubrí el área nunca antes visitada

C

Del lado oscuro de tu almohada

Bb Dm

Yo pasé mi lengua por el borde de tu cara

C

Probé tus lágrimas saladas



Bb Dm

Yo descubrí el área nunca antes visitada

C

Del lado oscuro de tu almohada

Bb Dm

Yo pasé mi lengua por el borde de tu cara

C

Probé tus lágrimas saladas



F Dm Am

F Dm Am

F Dm Am

F Dm Am

F

Letra subida por: Anónimo

Discos en los que aparece este acorde: Frisbee , En Vivo , La Historia

El acorde de El Último Polvo de Caramelos De Cianuro es una versión de la canción original realizada por colaboradores/usuarios de Coveralia.

¿Has encontrado algún error en esta página? Envíanos tu corrección del acorde