música
Buscador

Acorde de El Tambor - Koffee El Kafetero

Letra de El Tambor

PARTE I:

1./ Me quedo contigo, una y mil veces
2./ Me haces sentir vivo, tú me enloqueces

E |-------------|---0--------|
B |-----0---2-2-|-----2-2-0--|
G |---2---2-----|------------|
D |-2-----------|-2----------|


1./ Porque tu amor, eso ya no se ve.
2./ Como un tambor, voy a tocar tu piel.

E |-2-2-0-2--2-0-------------|
B |----------------0---------|
G |--------------2---2-2-----|
D |----------------------4-2-|

(BIS)


***


-PARTE I-


PARTE II:

1./ Quédate aquí que esto se pone bueno, vas a ver
2./ Yo voy pa’ lante, nunca tengo miedo, por tu amor

E |-------0----------------------|
B |---2-3---2-----2-0-0-0--2-1---|
G |-2---------2-2--------------4-|

(BIS)


Yo compro el mar y te lo doy con to’o y pescao’, por tu amor

E |-2-2-0-2-------0------------------|
B |---------2-0-----2-0---2-0----0-3-|
G |-------------2-------2------2-----|


Estoy donde nunca he estao'

E |---------0------------------------|
B |-----------2-2-0------------------|
G |-2-2-2-2--------------------------|


***


PARTE III:

Es muy cierto, me tienes enamorado

E |---0-2--0---0------------0-----|
B |-2--------2---2----0---0-------|
G |-----------------2---2---------|


Y me siento feliz sólo a tu lado

E |---0-2--0--------------------0-|
B |-2--------2-s-5-s-2----0---0---|
G |---------------------2---2-----|


Si doscientas mujeres vienen a mí

E |---0-2--0---0-------------------------|
B |-2--------2---2--2-0---0--------------|
G |---------------------2----------------|


No dudo ni un momento y a todas me tocaría decirles que

E |-0----------------0-------------------|
B |---3-3-3-2----------3-3-3-2-0---0-2-0-|
G |-----------2-2--2-------------2-------|


-PARTE I-


-PARTE III-


***
***


PARTE IV:

Y es que tú, sólo tú, sí tú tú tú tú tú

E |-----0-----0-------------|
B |-------2-2---2-----------|
G |-2-2-----------2-2-2-2---|
D |-----------------------2-|


Tienes lo que me detiene
Cuando tú caminas, mi mente imagina

E |-0-0---------0-0---------0-0---------0-0-|
B |-----------------------------------------|
G |-----2-2-2-2-----2-2-2-2-----2-2-2-2-----|


Que toco tu cuerpo entero como un tambor

E |---------0-0-0-----0-2-0-|
B |---------------2-2-------|
G |-2-2---------------------|
D |-----2-2-----------------|


Y tú, sólo tú, sí tú tú tú tú tú

E |-----0-----0-------------|
B |-------2-2---2-----------|
G |-2-------------2-2-2-2---|
D |-----------------------2-|


Tú eres la que me enloquece
Y dejas que te abrace, y dejas que te bese

E |-0-0---------0-0-----------0-0-----------0-0-|
B |---------------------------------------------|
G |-----2-2-2-2-----2-2-2-2-2-----2-2-2-2-2-----|


Que cuando termine la noche te hago el amor

E |---------0-0-0-----0-2-0--------------|
B |---------------2-2----------------|
G |-2-2------------------------------|
D |-----2-2--------------------------|


PARTE V:

Amor, y es que nunca me dices que no
Quien te conoce a ti soy yo
Quien te toca como un tambor
Como un tambor, tambor

E |-------------------0-------0-2-0----0-2-0-2-0-|
B |-3-2--2x7-0-0--0x6---3-3x5--------3-----------|
G |----------------------------------------------|

(BIS)


***


-PARTE IV-

-PARTE V-


Letra subida por: Anónimo

Discos en los que aparece este acorde: El Tambor (Cd Single)

El acorde de El Tambor de Koffee El Kafetero es una versión de la canción original realizada por colaboradores/usuarios de Coveralia.

¿Has encontrado algún error en esta página? Envíanos tu corrección del acorde