música
Buscador

Acorde de El Pescador - Pedro Guerra

Letra de El Pescador



Intro:



G#m B G#m B



e-4------------------4--------------------- )

b---7-5-7-5------------7-5-7--------------- )

g------------6-6--------------------------- )--- X2

d------------------------------------------ )

a------------------------------------------ )

E------------------------------------------ )





G#m B G#m B G#m

El muelle está en silencio un viento suave mece el mar

B G# B E

el pescador prepara el cebo y tensa el hilo de pescar

E7 A B F#m

clava los ojos en las olas y se entretiene en el vaivén

B G#m C#m A

la piel naranja de la aurora se baña en el amanecer

B E

se baña en el amanecer



G#m B G#m B G#m

el muelle está en silencio y acariciado por la sal

B G# B E

el pescador repasa el tiempo y tensa el hilo de pensar

E7 A B F#m

clava los ojos en las olas su mente cruje como un tren

B G#m A

la incontinencia de las horas lo saca del amanecer

B E

lo saca del amanecer…

A E E

nunca sabe lo que aguarda tras la azul inmensidad



E E7 A

quizá una canción de amor

B F#m B

quizá una historia de piratas

E

quizá el recuerdo de un dolor

E E7 A

quizá la ilusión de Dios

B F#m B

quizá un sonido de campanas

E

quizá un recado una oración

E E7 A

quizá sea el lobo feroz

B F#m B

una escalera de palabras

E

la leve estría de un temblor

E E7 A

quizá sólo un resplandor

B F#m B

el llanto seco de la rabia

https://www.coveralia.com/acordes/el-pescador-pedro-guerra.php

E

quizá sea un sueño de pasión.





e------------------------------------------ )

b------------------------------------------ )

g-3-4-6---6-4-3-4-----3-4-6---6-4-3-------- )

d------------------------------------------ )

a------------------------------------------ )

E------------------------------------------ )





G#m B G#m B G#m

el muelle está en silencio y el sol se asoma desde el mar

B G# B E

el hombre mira su reflejo en la ensenada de cristal

E7 A B F#m

clava los ojos en las olas y se dispone a recoger

B G#m C#m A

lo que ha pescado en estas horas lo que ha aprendido y lo que es

B E

lo que ha aprendido y lo que es.



A E E

nunca sabe lo que aguarda tras la azul inmensidad



E E7 A

quizá una canción de amor

B F#m B

quizá una historia de piratas

E

quizá el recuerdo de un dolor

E E7 A

quizá la ilusión de Dios

B F#m B

quizá un sonido de campanas

E

quizá un recado una oración

E E7 A

quizá sea el lobo feroz

B F#m B

una escalera de palabras

E

la leve estría de un temblor

E E7 A

quizá sólo un resplandor

B F#m B

el llanto seco de la rabia

E

quizá sea un sueño de pasión.



e------------------------------------------ )

b------------------------------------------ )

g-3-4-6---6-4-3-4-----3-4-6---6-4-3-------- )

d-------------------------------------4---- )

a------------------------------------------ )

E------------------------------------------ )

Letra subida por: Anónimo

Discos en los que aparece este acorde: Vidas , Vidas En Vivo

El acorde de El Pescador de Pedro Guerra es una versión de la canción original realizada por colaboradores/usuarios de Coveralia.

¿Has encontrado algún error en esta página? Envíanos tu corrección del acorde